  0
SECTION
  2
HEADER
  9
$ACADVER
  1
AC1015
  9
$ACADMAINTVER
 70
     6
  9
$DWGCODEPAGE
  3
ANSI_1252
  9
$INSBASE
 10
0.0
 20
0.0
 30
0.0
  9
$EXTMIN
 10
-4001.00756334907
 20
-16590.3155003945
 30
0.0
  9
$EXTMAX
 10
19307.8313983154
 20
3803.056843248001
 30
0.0
  9
$LIMMIN
 10
0.0
 20
0.0
  9
$LIMMAX
 10
12.0
 20
9.0
  9
$ORTHOMODE
 70
     0
  9
$REGENMODE
 70
     1
  9
$FILLMODE
 70
     1
  9
$QTEXTMODE
 70
     0
  9
$MIRRTEXT
 70
     1
  9
$LTSCALE
 40
1.0
  9
$ATTMODE
 70
     1
  9
$TEXTSIZE
 40
0.2
  9
$TRACEWID
 40
0.05
  9
$TEXTSTYLE
  7
Standard
  9
$CLAYER
  8
0
  9
$CELTYPE
  6
ByLayer
  9
$CECOLOR
 62
   256
  9
$CELTSCALE
 40
1.0
  9
$DISPSILH
 70
     0
  9
$DIMSCALE
 40
1.0
  9
$DIMASZ
 40
0.18
  9
$DIMEXO
 40
0.0625
  9
$DIMDLI
 40
0.38
  9
$DIMRND
 40
0.0
  9
$DIMDLE
 40
0.0
  9
$DIMEXE
 40
0.18
  9
$DIMTP
 40
0.0
  9
$DIMTM
 40
0.0
  9
$DIMTXT
 40
0.18
  9
$DIMCEN
 40
0.09
  9
$DIMTSZ
 40
0.0
  9
$DIMTOL
 70
     0
  9
$DIMLIM
 70
     0
  9
$DIMTIH
 70
     1
  9
$DIMTOH
 70
     1
  9
$DIMSE1
 70
     0
  9
$DIMSE2
 70
     0
  9
$DIMTAD
 70
     0
  9
$DIMZIN
 70
     0
  9
$DIMBLK
  1

  9
$DIMASO
 70
     1
  9
$DIMSHO
 70
     1
  9
$DIMPOST
  1

  9
$DIMAPOST
  1

  9
$DIMALT
 70
     0
  9
$DIMALTD
 70
     2
  9
$DIMALTF
 40
25.4
  9
$DIMLFAC
 40
1.0
  9
$DIMTOFL
 70
     0
  9
$DIMTVP
 40
0.0
  9
$DIMTIX
 70
     0
  9
$DIMSOXD
 70
     0
  9
$DIMSAH
 70
     0
  9
$DIMBLK1
  1

  9
$DIMBLK2
  1

  9
$DIMSTYLE
  2
Standard
  9
$DIMCLRD
 70
     0
  9
$DIMCLRE
 70
     0
  9
$DIMCLRT
 70
     0
  9
$DIMTFAC
 40
1.0
  9
$DIMGAP
 40
0.09
  9
$DIMJUST
 70
     0
  9
$DIMSD1
 70
     0
  9
$DIMSD2
 70
     0
  9
$DIMTOLJ
 70
     1
  9
$DIMTZIN
 70
     0
  9
$DIMALTZ
 70
     0
  9
$DIMALTTZ
 70
     0
  9
$DIMUPT
 70
     0
  9
$DIMDEC
 70
     4
  9
$DIMTDEC
 70
     4
  9
$DIMALTU
 70
     2
  9
$DIMALTTD
 70
     2
  9
$DIMTXSTY
  7
Standard
  9
$DIMAUNIT
 70
     0
  9
$DIMADEC
 70
     0
  9
$DIMALTRND
 40
0.0
  9
$DIMAZIN
 70
     0
  9
$DIMDSEP
 70
    46
  9
$DIMATFIT
 70
     3
  9
$DIMFRAC
 70
     0
  9
$DIMLDRBLK
  1

  9
$DIMLUNIT
 70
     2
  9
$DIMLWD
 70
    -2
  9
$DIMLWE
 70
    -2
  9
$DIMTMOVE
 70
     0
  9
$LUNITS
 70
     2
  9
$LUPREC
 70
     4
  9
$SKETCHINC
 40
0.1
  9
$FILLETRAD
 40
0.5
  9
$AUNITS
 70
     0
  9
$AUPREC
 70
     0
  9
$MENU
  1
.
  9
$ELEVATION
 40
0.0
  9
$PELEVATION
 40
0.0
  9
$THICKNESS
 40
0.0
  9
$LIMCHECK
 70
     0
  9
$CHAMFERA
 40
0.5
  9
$CHAMFERB
 40
0.5
  9
$CHAMFERC
 40
1.0
  9
$CHAMFERD
 40
0.0
  9
$SKPOLY
 70
     0
  9
$TDCREATE
 40
2454120.370421343
  9
$TDUCREATE
 40
2454120.328754676
  9
$TDUPDATE
 40
2454120.370421354
  9
$TDUUPDATE
 40
2454120.328754688
  9
$TDINDWG
 40
0.0000000116
  9
$TDUSRTIMER
 40
0.0000000116
  9
$USRTIMER
 70
     1
  9
$ANGBASE
 50
0.0
  9
$ANGDIR
 70
     0
  9
$PDMODE
 70
     0
  9
$PDSIZE
 40
0.0
  9
$PLINEWID
 40
0.0
  9
$SPLFRAME
 70
     0
  9
$SPLINETYPE
 70
     6
  9
$SPLINESEGS
 70
     8
  9
$HANDSEED
  5
29E
  9
$SURFTAB1
 70
     6
  9
$SURFTAB2
 70
     6
  9
$SURFTYPE
 70
     6
  9
$SURFU
 70
     6
  9
$SURFV
 70
     6
  9
$UCSBASE
  2

  9
$UCSNAME
  2

  9
$UCSORG
 10
0.0
 20
0.0
 30
0.0
  9
$UCSXDIR
 10
1.0
 20
0.0
 30
0.0
  9
$UCSYDIR
 10
0.0
 20
1.0
 30
0.0
  9
$UCSORTHOREF
  2

  9
$UCSORTHOVIEW
 70
     0
  9
$UCSORGTOP
 10
0.0
 20
0.0
 30
0.0
  9
$UCSORGBOTTOM
 10
0.0
 20
0.0
 30
0.0
  9
$UCSORGLEFT
 10
0.0
 20
0.0
 30
0.0
  9
$UCSORGRIGHT
 10
0.0
 20
0.0
 30
0.0
  9
$UCSORGFRONT
 10
0.0
 20
0.0
 30
0.0
  9
$UCSORGBACK
 10
0.0
 20
0.0
 30
0.0
  9
$PUCSBASE
  2

  9
$PUCSNAME
  2

  9
$PUCSORG
 10
0.0
 20
0.0
 30
0.0
  9
$PUCSXDIR
 10
1.0
 20
0.0
 30
0.0
  9
$PUCSYDIR
 10
0.0
 20
1.0
 30
0.0
  9
$PUCSORTHOREF
  2

  9
$PUCSORTHOVIEW
 70
     0
  9
$PUCSORGTOP
 10
0.0
 20
0.0
 30
0.0
  9
$PUCSORGBOTTOM
 10
0.0
 20
0.0
 30
0.0
  9
$PUCSORGLEFT
 10
0.0
 20
0.0
 30
0.0
  9
$PUCSORGRIGHT
 10
0.0
 20
0.0
 30
0.0
  9
$PUCSORGFRONT
 10
0.0
 20
0.0
 30
0.0
  9
$PUCSORGBACK
 10
0.0
 20
0.0
 30
0.0
  9
$USERI1
 70
     0
  9
$USERI2
 70
     0
  9
$USERI3
 70
     0
  9
$USERI4
 70
     0
  9
$USERI5
 70
     0
  9
$USERR1
 40
13.01
  9
$USERR2
 40
0.0
  9
$USERR3
 40
0.0
  9
$USERR4
 40
0.0
  9
$USERR5
 40
0.0
  9
$WORLDVIEW
 70
     1
  9
$SHADEDGE
 70
     3
  9
$SHADEDIF
 70
    70
  9
$TILEMODE
 70
     1
  9
$MAXACTVP
 70
    64
  9
$PINSBASE
 10
0.0
 20
0.0
 30
0.0
  9
$PLIMCHECK
 70
     0
  9
$PEXTMIN
 10
1.00000000000000E+20
 20
1.00000000000000E+20
 30
1.00000000000000E+20
  9
$PEXTMAX
 10
-1.00000000000000E+20
 20
-1.00000000000000E+20
 30
-1.00000000000000E+20
  9
$PLIMMIN
 10
0.0
 20
0.0
  9
$PLIMMAX
 10
12.0
 20
9.0
  9
$UNITMODE
 70
     0
  9
$VISRETAIN
 70
     1
  9
$PLINEGEN
 70
     0
  9
$PSLTSCALE
 70
     1
  9
$TREEDEPTH
 70
  3020
  9
$CMLSTYLE
  2
Standard
  9
$CMLJUST
 70
     0
  9
$CMLSCALE
 40
1.0
  9
$PROXYGRAPHICS
 70
     1
  9
$MEASUREMENT
 70
     1
  9
$CELWEIGHT
370
    -1
  9
$ENDCAPS
280
     0
  9
$JOINSTYLE
280
     0
  9
$LWDISPLAY
290
     0
  9
$INSUNITS
 70
     1
  9
$HYPERLINKBASE
  1

  9
$STYLESHEET
  1

  9
$XEDIT
290
     1
  9
$CEPSNTYPE
380
     0
  9
$PSTYLEMODE
290
     0
  9
$FINGERPRINTGUID
  2
{FAEB1C30-E019-11D5-929B-00C0DF256EC4}
  9
$VERSIONGUID
  2
{FAEB1C32-E019-11D5-929B-00C0DF256EC4}
  9
$EXTNAMES
290
     1
  9
$PSVPSCALE
 40
0.0
  9
$OLESTARTUP
290
     0
  0
ENDSEC
  0
SECTION
  2
CLASSES
  0
CLASS
  1
ACDBDICTIONARYWDFLT
  2
AcDbDictionaryWithDefault
  3
ObjectDBX Classes
 90
        0
280
     0
281
     0
  0
CLASS
  1
TABLESTYLE
  2
AcDbTableStyle
  3
ObjectDBX Classes
 90
     2047
280
     0
281
     0
  0
CLASS
  1
DICTIONARYVAR
  2
AcDbDictionaryVar
  3
ObjectDBX Classes
 90
        0
280
     0
281
     0
  0
CLASS
  1

  2
exOdDbCircle
  3

 90
        0
280
     0
281
     1
  0
CLASS
  1

  2
exOdDbPolyline
  3

 90
        0
280
     0
281
     1
  0
CLASS
  1
ACDBPLACEHOLDER
  2
AcDbPlaceHolder
  3
ObjectDBX Classes
 90
        0
280
     0
281
     0
  0
CLASS
  1
LAYOUT
  2
AcDbLayout
  3
ObjectDBX Classes
 90
        0
280
     0
281
     0
  0
ENDSEC
  0
SECTION
  2
TABLES
  0
TABLE
  2
VPORT
  5
8
330
0
100
AcDbSymbolTable
 70
     2
  0
VPORT
  5
29
330
8
100
AcDbSymbolTableRecord
100
AcDbViewportTableRecord
  2
*Active
 70
     0
 10
0.0
 20
0.0
 11
1.0
 21
1.0
 12
7653.411917483165
 22
-6393.629328573249
 13
0.0
 23
0.0
 14
0.5
 24
0.5
 15
0.5
 25
0.5
 16
0.0
 26
0.0
 36
1.0
 17
0.0
 27
0.0
 37
0.0
 40
22432.70957800675
 41
1.60267857142857
 42
50.0
 43
0.0
 44
0.0
 50
0.0
 51
0.0
 71
     0
 72
   100
 73
     1
 74
     3
 75
     0
 76
     0
 77
     0
 78
     0
281
     0
 65
     1
110
0.0
120
0.0
130
0.0
111
1.0
121
0.0
131
0.0
112
0.0
122
1.0
132
0.0
 79
     0
146
0.0
  0
ENDTAB
  0
TABLE
  2
LTYPE
  5
5
330
0
100
AcDbSymbolTable
 70
     8
  0
LTYPE
  5
14
330
5
100
AcDbSymbolTableRecord
100
AcDbLinetypeTableRecord
  2
ByBlock
 70
     0
  3

 72
    65
 73
     0
 40
0.0
  0
LTYPE
  5
15
330
5
100
AcDbSymbolTableRecord
100
AcDbLinetypeTableRecord
  2
ByLayer
 70
     0
  3

 72
    65
 73
     0
 40
0.0
  0
LTYPE
  5
16
330
5
100
AcDbSymbolTableRecord
100
AcDbLinetypeTableRecord
  2
Continuous
 70
     0
  3
Solid line
 72
    65
 73
     0
 40
0.0
  0
LTYPE
  5
2E
330
5
100
AcDbSymbolTableRecord
100
AcDbLinetypeTableRecord
  2
DASHED
 70
     0
  3
Dashed
 72
    65
 73
     2
 40
15.0
 49
7.0
 74
     0
 49
-8.0
 74
     0
  0
LTYPE
  5
2F
330
5
100
AcDbSymbolTableRecord
100
AcDbLinetypeTableRecord
  2
DOTTED
 70
     0
  3
Dotted
 72
    65
 73
     2
 40
1.0
 49
0.0
 74
     0
 49
-1.0
 74
     0
  0
LTYPE
  5
30
330
5
100
AcDbSymbolTableRecord
100
AcDbLinetypeTableRecord
  2
DOT_CENTER
 70
     0
  3
Dot_Center
 72
    65
 73
     4
 40
14.0
 49
12.0
 74
     0
 49
-1.0
 74
     0
 49
0.0
 74
     0
 49
-1.0
 74
     0
  0
LTYPE
  5
31
330
5
100
AcDbSymbolTableRecord
100
AcDbLinetypeTableRecord
  2
LONG_DASHED
 70
     0
  3
Long_Dashed
 72
    65
 73
     2
 40
15.0
 49
10.0
 74
     0
 49
-5.0
 74
     0
  0
LTYPE
  5
32
330
5
100
AcDbSymbolTableRecord
100
AcDbLinetypeTableRecord
  2
DASH_CENTER
 70
     0
  3
Dash_Center
 72
    65
 73
     4
 40
14.0
 49
11.0
 74
     0
 49
-1.0
 74
     0
 49
1.0
 74
     0
 49
-1.0
 74
     0
  0
LTYPE
  5
33
330
5
100
AcDbSymbolTableRecord
100
AcDbLinetypeTableRecord
  2
PHANTOM
 70
     0
  3
Phantom
 72
    65
 73
     6
 40
13.0
 49
10.0
 74
     0
 49
-1.0
 74
     0
 49
0.0
 74
     0
 49
-1.0
 74
     0
 49
0.0
 74
     0
 49
-1.0
 74
     0
  0
LTYPE
  5
34
330
5
100
AcDbSymbolTableRecord
100
AcDbLinetypeTableRecord
  2
CENTER_DASH_DASH
 70
     0
  3
Center_Dash_Dash
 72
    65
 73
     6
 40
14.0
 49
9.0
 74
     0
 49
-1.0
 74
     0
 49
1.0
 74
     0
 49
-1.0
 74
     0
 49
1.0
 74
     0
 49
-1.0
 74
     0
  0
ENDTAB
  0
TABLE
  2
LAYER
  5
2
330
0
100
AcDbSymbolTable
 70
     3
  0
LAYER
  5
10
330
2
100
AcDbSymbolTableRecord
100
AcDbLayerTableRecord
  2
0
 70
     0
 62
     7
  6
Continuous
370
    -3
390
F
  0
LAYER
  5
35
330
2
100
AcDbSymbolTableRecord
100
AcDbLayerTableRecord
  2
1
 70
     0
 62
     7
  6
Continuous
370
    -3
390
F
  0
LAYER
  5
36
330
2
100
AcDbSymbolTableRecord
100
AcDbLayerTableRecord
  2
VOLLE_LIJNEN
 70
     0
 62
     7
  6
Continuous
370
    -3
390
F
  0
ENDTAB
  0
TABLE
  2
STYLE
  5
3
330
0
100
AcDbSymbolTable
 70
     1
  0
STYLE
  5
11
330
3
100
AcDbSymbolTableRecord
100
AcDbTextStyleTableRecord
  2
Standard
 70
     0
 40
0.0
 41
1.0
 50
0.0
 71
     0
 42
0.2
  3
txt
  4

  0
ENDTAB
  0
TABLE
  2
VIEW
  5
6
330
0
100
AcDbSymbolTable
 70
     0
  0
ENDTAB
  0
TABLE
  2
UCS
  5
7
330
0
100
AcDbSymbolTable
 70
     0
  0
ENDTAB
  0
TABLE
  2
APPID
  5
9
330
0
100
AcDbSymbolTable
 70
     1
  0
APPID
  5
12
330
9
100
AcDbSymbolTableRecord
100
AcDbRegAppTableRecord
  2
ACAD
 70
     0
  0
ENDTAB
  0
TABLE
  2
DIMSTYLE
  5
A
330
0
100
AcDbSymbolTable
 70
     1
100
AcDbDimStyleTable
  0
DIMSTYLE
105
27
330
A
100
AcDbSymbolTableRecord
100
AcDbDimStyleTableRecord
  2
Standard
 70
     0
340
11
  0
ENDTAB
  0
TABLE
  2
BLOCK_RECORD
  5
1
330
0
100
AcDbSymbolTable
 70
     1
  0
BLOCK_RECORD
  5
1F
330
1
100
AcDbSymbolTableRecord
100
AcDbBlockTableRecord
  2
*Model_Space
340
22
  0
BLOCK_RECORD
  5
1B
330
1
100
AcDbSymbolTableRecord
100
AcDbBlockTableRecord
  2
*Paper_Space
340
1E
  0
BLOCK_RECORD
  5
23
330
1
100
AcDbSymbolTableRecord
100
AcDbBlockTableRecord
  2
*Paper_Space0
340
26
  0
ENDTAB
  0
ENDSEC
  0
SECTION
  2
BLOCKS
  0
BLOCK
  5
20
330
1F
100
AcDbEntity
  8
0
100
AcDbBlockBegin
  2
*Model_Space
 70
     0
 71
     0
 10
0.0
 20
0.0
 30
0.0
  3
*Model_Space
  1

  0
ENDBLK
  5
21
330
1F
100
AcDbEntity
  8
0
100
AcDbBlockEnd
  0
BLOCK
  5
1C
330
1B
100
AcDbEntity
 67
     1
  8
0
100
AcDbBlockBegin
  2
*Paper_Space
 70
     0
 71
     0
 10
0.0
 20
0.0
 30
0.0
  3
*Paper_Space
  1

  0
ENDBLK
  5
1D
330
1B
100
AcDbEntity
 67
     1
  8
0
100
AcDbBlockEnd
  0
BLOCK
  5
24
330
23
100
AcDbEntity
  8
0
100
AcDbBlockBegin
  2
*Paper_Space0
 70
     0
 71
     0
 10
0.0
 20
0.0
 30
0.0
  3
*Paper_Space0
  1

  0
ENDBLK
  5
25
330
23
100
AcDbEntity
  8
0
100
AcDbBlockEnd
  0
ENDSEC
  0
SECTION
  2
ENTITIES
  0
LINE
  5
37
330
1F
100
AcDbEntity
  8
1
  6
Continuous
 62
     7
100
AcDbLine
 10
-78.00000017680031
 20
-12082.2309667031
 30
0.0
 11
-78.00000017680031
 21
-11777.3913536289
 31
0.0
  0
LINE
  5
38
330
1F
100
AcDbEntity
  8
1
  6
Continuous
 62
     4
100
AcDbLine
 10
-197.4663037749197
 20
-12090.3155003945
 30
0.0
 11
-198.0046294368895
 21
-12082.1608417986
 31
0.0
  0
LINE
  5
39
330
1F
100
AcDbEntity
  8
1
  6
Continuous
 62
     4
100
AcDbLine
 10
-78.5410718266503
 20
-12090.3155003945
 30
0.0
 11
-78.00000017680031
 21
-12082.2309667031
 31
0.0
  0
LINE
  5
3A
330
1F
100
AcDbEntity
  8
1
  6
Continuous
 62
     4
100
AcDbLine
 10
-78.5410718266503
 20
-12090.3155003945
 30
0.0
 11
-197.4663037749197
 21
-12090.3155003945
 31
0.0
  0
LINE
  5
3B
330
1F
100
AcDbEntity
  8
1
  6
Continuous
 62
     7
100
AcDbLine
 10
-1038.0000001768
 20
-12082.2309667031
 30
0.0
 11
-78.00000017680031
 21
-12082.2309667031
 31
0.0
  0
LINE
  5
3C
330
1F
100
AcDbEntity
  8
1
  6
Continuous
 62
     4
100
AcDbLine
 10
-918.5336965786701
 20
-12090.3155003945
 30
0.0
 11
-1037.45892852695
 21
-12090.3155003945
 31
0.0
  0
LINE
  5
3D
330
1F
100
AcDbEntity
  8
1
  6
Continuous
 62
     4
100
AcDbLine
 10
-1038.0000001768
 20
-12082.2309667031
 30
0.0
 11
-1037.45892852695
 21
-12090.3155003945
 31
0.0
  0
LINE
  5
3E
330
1F
100
AcDbEntity
  8
1
  6
Continuous
 62
     4
100
AcDbLine
 10
-917.9953709167003
 20
-12082.1608417986
 30
0.0
 11
-918.5336965786701
 21
-12090.3155003945
 31
0.0
  0
LINE
  5
3F
330
1F
100
AcDbEntity
  8
1
  6
Continuous
 62
     7
100
AcDbLine
 10
-1038.0000001768
 20
-11777.3913536289
 30
0.0
 11
-1038.0000001768
 21
-12082.2309667031
 31
0.0
  0
LINE
  5
40
330
1F
100
AcDbEntity
  8
1
  6
Continuous
 62
     7
100
AcDbLine
 10
-2621.458989738911
 20
-11687.9207794081
 30
0.0
 11
-2621.458989738911
 21
-11690.9207794081
 31
0.0
  0
LINE
  5
41
330
1F
100
AcDbEntity
  8
1
  6
Continuous
 62
     7
100
AcDbLine
 10
-3053.45886713819
 20
-11687.9207794081
 30
0.0
 11
-3053.45886713819
 21
-11690.9207794081
 31
0.0
  0
LINE
  5
42
330
1F
100
AcDbEntity
  8
1
  6
Continuous
 62
     7
100
AcDbLine
 10
-3317.45892852695
 20
-11691.5584556345
 30
0.0
 11
-3317.45892852695
 21
-11772.0576777883
 31
0.0
  0
LINE
  5
43
330
1F
100
AcDbEntity
  8
1
  6
Continuous
 62
     7
100
AcDbLine
 10
-3317.45892852695
 20
-11777.3913536289
 30
0.0
 11
-3317.45892852695
 21
-12082.2309667031
 31
0.0
  0
LINE
  5
44
330
1F
100
AcDbEntity
  8
0
  6
Continuous
 62
     7
100
AcDbLine
 10
-3241.513576288131
 20
-11675.9207794081
 30
0.0
 11
-3065.45886731499
 21
-11675.9207794081
 31
0.0
  0
LINE
  5
45
330
1F
100
AcDbEntity
  8
1
  6
Continuous
 62
     7
100
AcDbLine
 10
-2357.45892852695
 20
-11777.3913536289
 30
0.0
 11
-3317.45892817335
 21
-11777.3913536289
 31
0.0
  0
LINE
  5
46
330
1F
100
AcDbEntity
  8
1
  6
Continuous
 62
     7
100
AcDbLine
 10
-2357.45892852695
 20
-12082.2309667031
 30
0.0
 11
-2357.45892852695
 21
-11777.3913536289
 31
0.0
  0
LINE
  5
47
330
1F
100
AcDbEntity
  8
1
  6
Continuous
 62
     7
100
AcDbLine
 10
-2357.45892852695
 20
-11772.0576777883
 30
0.0
 11
-2357.45892852695
 21
-11691.5584556345
 31
0.0
  0
LINE
  5
48
330
1F
100
AcDbEntity
  8
1
  6
Continuous
 62
     1
100
AcDbLine
 10
-3317.45892817335
 20
-11691.5584556345
 30
0.0
 11
-2357.45892852695
 21
-11691.5584556345
 31
0.0
  0
LINE
  5
49
330
1F
100
AcDbEntity
  8
0
  6
Continuous
 62
     7
100
AcDbLine
 10
-3041.45886713817
 20
-11675.9207794081
 30
0.0
 11
-2633.458989738891
 21
-11675.9207794081
 31
0.0
  0
LINE
  5
4A
330
1F
100
AcDbEntity
  8
0
  6
Continuous
 62
     7
100
AcDbLine
 10
-3197.45892852695
 20
-11918.2242804729
 30
0.0
 11
-2477.45892852695
 21
-11918.2242804729
 31
0.0
  0
LINE
  5
4B
330
1F
100
AcDbEntity
  8
0
  6
Continuous
 62
     7
100
AcDbLine
 10
-2609.458989738911
 20
-11675.9207794081
 30
0.0
 11
-2433.404280765781
 21
-11675.9207794081
 31
0.0
  0
LINE
  5
4C
330
1F
100
AcDbEntity
  8
1
  6
Continuous
 62
     7
100
AcDbLine
 10
-2477.45892852695
 20
-12082.2309667031
 30
0.0
 11
-2357.45892852695
 21
-12082.2309667031
 31
0.0
  0
LINE
  5
4D
330
1F
100
AcDbEntity
  8
1
  6
Continuous
 62
     4
100
AcDbLine
 10
-2358.0000001768
 20
-12090.3155003945
 30
0.0
 11
-2476.92523212507
 21
-12090.3155003945
 31
0.0
  0
LINE
  5
4E
330
1F
100
AcDbEntity
  8
1
  6
Continuous
 62
     4
100
AcDbLine
 10
-2358.0000001768
 20
-12090.3155003945
 30
0.0
 11
-2357.45892852695
 21
-12082.2309667031
 31
0.0
  0
LINE
  5
4F
330
1F
100
AcDbEntity
  8
1
  6
Continuous
 62
     7
100
AcDbLine
 10
-2477.45892852695
 20
-11777.3913536289
 30
0.0
 11
-2477.45892852695
 21
-12082.2309667031
 31
0.0
  0
LINE
  5
50
330
1F
100
AcDbEntity
  8
1
  6
Continuous
 62
     4
100
AcDbLine
 10
-2476.92523212507
 20
-12090.3155003945
 30
0.0
 11
-2477.46355778704
 21
-12082.1608417986
 31
0.0
  0
LINE
  5
51
330
1F
100
AcDbEntity
  8
1
  6
Continuous
 62
     4
100
AcDbLine
 10
-3197.45429926685
 20
-12082.1608417986
 30
0.0
 11
-3197.99262492882
 21
-12090.3155003945
 31
0.0
  0
LINE
  5
52
330
1F
100
AcDbEntity
  8
1
  6
Continuous
 62
     7
100
AcDbLine
 10
-3197.45892852695
 20
-12082.2309667031
 30
0.0
 11
-3197.45892852695
 21
-11777.3913536289
 31
0.0
  0
LINE
  5
53
330
1F
100
AcDbEntity
  8
1
  6
Continuous
 62
     4
100
AcDbLine
 10
-3317.45892852695
 20
-12082.2309667031
 30
0.0
 11
-3316.9178568771
 21
-12090.3155003945
 31
0.0
  0
LINE
  5
54
330
1F
100
AcDbEntity
  8
1
  6
Continuous
 62
     4
100
AcDbLine
 10
-3197.99262492882
 20
-12090.3155003945
 30
0.0
 11
-3316.9178568771
 21
-12090.3155003945
 31
0.0
  0
LINE
  5
55
330
1F
100
AcDbEntity
  8
1
  6
Continuous
 62
     7
100
AcDbLine
 10
-3317.45892852695
 20
-12082.2309667031
 30
0.0
 11
-3197.45892852695
 21
-12082.2309667031
 31
0.0
  0
LINE
  5
56
330
1F
100
AcDbEntity
  8
0
  6
Continuous
 62
     7
100
AcDbLine
 10
-3317.458928350151
 20
-13590.3155003945
 30
0.0
 11
-3317.458928350151
 21
-12630.3155003945
 31
0.0
  0
LINE
  5
57
330
1F
100
AcDbEntity
  8
0
  6
Continuous
 62
     1
100
AcDbLine
 10
-3053.45886731499
 20
-13590.0124388512
 30
0.0
 11
-3053.45886731499
 21
-12630.3155003945
 31
0.0
  0
LINE
  5
58
330
1F
100
AcDbEntity
  8
0
  6
Continuous
 62
     7
100
AcDbLine
 10
-3317.458928350151
 20
-13590.3155003945
 30
0.0
 11
-2357.45892870375
 21
-13590.3155003945
 31
0.0
  0
LINE
  5
59
330
1F
100
AcDbEntity
  8
0
  6
Continuous
 62
     7
100
AcDbLine
 10
-3317.458928350151
 20
-12630.3155003945
 30
0.0
 11
-2357.45892870375
 21
-12630.3155003945
 31
0.0
  0
LINE
  5
5A
330
1F
100
AcDbEntity
  8
0
  6
Continuous
 62
     7
100
AcDbLine
 10
-2357.45892870375
 20
-13590.3155003945
 30
0.0
 11
-2357.45892870375
 21
-12630.3155003945
 31
0.0
  0
LINE
  5
5B
330
1F
100
AcDbEntity
  8
0
  6
Continuous
 62
     1
100
AcDbLine
 10
-2621.45898991571
 20
-13590.0124388512
 30
0.0
 11
-2621.45898991571
 21
-12630.3155003945
 31
0.0
  0
LINE
  5
5C
330
1F
100
AcDbEntity
  8
1
  6
Continuous
 62
     1
100
AcDbLine
 10
-3053.45886731499
 20
-12894.3155003945
 30
0.0
 11
-2621.45898991571
 21
-12894.3155003945
 31
0.0
  0
LINE
  5
5D
330
1F
100
AcDbEntity
  8
1
  6
Continuous
 62
     1
100
AcDbLine
 10
-3053.45886731499
 20
-13326.3155003945
 30
0.0
 11
-2621.45898991571
 21
-13326.3155003945
 31
0.0
  0
LINE
  5
5E
330
1F
100
AcDbEntity
  8
1
  6
Continuous
 62
     1
100
AcDbLine
 10
-2621.45898991571
 20
-13110.3155003945
 30
0.0
 11
-2357.45892870375
 21
-13110.3155003945
 31
0.0
  0
LINE
  5
5F
330
1F
100
AcDbEntity
  8
1
  6
Continuous
 62
     1
100
AcDbLine
 10
-3317.458928350151
 20
-13110.3155003945
 30
0.0
 11
-3053.45886731499
 21
-13110.3155003945
 31
0.0
  0
LINE
  5
60
330
1F
100
AcDbEntity
  8
1
  6
Continuous
 62
     4
100
AcDbLine
 10
-1037.45892852695
 20
-15082.2309667031
 30
0.0
 11
-1012.191064315841
 21
-15082.2309667031
 31
0.0
  0
LINE
  5
61
330
1F
100
AcDbEntity
  8
1
  6
Continuous
 62
     4
100
AcDbLine
 10
-1037.45892852695
 20
-15090.3155003945
 30
0.0
 11
-1012.191064315841
 21
-15090.3155003945
 31
0.0
  0
LINE
  5
62
330
1F
100
AcDbEntity
  8
1
  6
Continuous
 62
     7
100
AcDbLine
 10
-3317.45892852695
 20
-15082.2309667031
 30
0.0
 11
-3197.45892852695
 21
-15082.2309667031
 31
0.0
  0
LINE
  5
63
330
1F
100
AcDbEntity
  8
1
  6
Continuous
 62
     4
100
AcDbLine
 10
-3197.99262492882
 20
-15090.3155003945
 30
0.0
 11
-3316.9178568771
 21
-15090.3155003945
 31
0.0
  0
LINE
  5
64
330
1F
100
AcDbEntity
  8
1
  6
Continuous
 62
     4
100
AcDbLine
 10
-3317.45892852695
 20
-15082.2309667031
 30
0.0
 11
-3316.9178568771
 21
-15090.3155003945
 31
0.0
  0
LINE
  5
65
330
1F
100
AcDbEntity
  8
1
  6
Continuous
 62
     7
100
AcDbLine
 10
-3197.45892852695
 20
-15082.2309667031
 30
0.0
 11
-3197.45892852695
 21
-14777.3913536289
 31
0.0
  0
LINE
  5
66
330
1F
100
AcDbEntity
  8
1
  6
Continuous
 62
     4
100
AcDbLine
 10
-3197.45429926685
 20
-15082.1608417986
 30
0.0
 11
-3197.99262492882
 21
-15090.3155003945
 31
0.0
  0
LINE
  5
67
330
1F
100
AcDbEntity
  8
1
  6
Continuous
 62
     4
100
AcDbLine
 10
-2476.92523212507
 20
-15090.3155003945
 30
0.0
 11
-2477.46355778704
 21
-15082.1608417986
 31
0.0
  0
LINE
  5
68
330
1F
100
AcDbEntity
  8
1
  6
Continuous
 62
     7
100
AcDbLine
 10
-2477.45892852695
 20
-14777.3913536289
 30
0.0
 11
-2477.45892852695
 21
-15082.2309667031
 31
0.0
  0
LINE
  5
69
330
1F
100
AcDbEntity
  8
1
  6
Continuous
 62
     4
100
AcDbLine
 10
-2358.0000001768
 20
-15090.3155003945
 30
0.0
 11
-2357.45892852695
 21
-15082.2309667031
 31
0.0
  0
LINE
  5
6A
330
1F
100
AcDbEntity
  8
1
  6
Continuous
 62
     4
100
AcDbLine
 10
-2358.0000001768
 20
-15090.3155003945
 30
0.0
 11
-2476.92523212507
 21
-15090.3155003945
 31
0.0
  0
LINE
  5
6B
330
1F
100
AcDbEntity
  8
1
  6
Continuous
 62
     7
100
AcDbLine
 10
-2477.45892852695
 20
-15082.2309667031
 30
0.0
 11
-2357.45892852695
 21
-15082.2309667031
 31
0.0
  0
LINE
  5
6C
330
1F
100
AcDbEntity
  8
0
  6
Continuous
 62
     7
100
AcDbLine
 10
-2609.458989738911
 20
-14675.9207794081
 30
0.0
 11
-2433.404280765781
 21
-14675.9207794081
 31
0.0
  0
LINE
  5
6D
330
1F
100
AcDbEntity
  8
0
  6
Continuous
 62
     7
100
AcDbLine
 10
-3197.45892852695
 20
-14918.2242804729
 30
0.0
 11
-2477.45892852695
 21
-14918.2242804729
 31
0.0
  0
LINE
  5
6E
330
1F
100
AcDbEntity
  8
0
  6
Continuous
 62
     7
100
AcDbLine
 10
-3041.45886713817
 20
-14675.9207794081
 30
0.0
 11
-2633.458989738891
 21
-14675.9207794081
 31
0.0
  0
LINE
  5
6F
330
1F
100
AcDbEntity
  8
0
  6
Continuous
 62
     7
100
AcDbLine
 10
-557.4589285269503
 20
-15082.2309667031
 30
0.0
 11
-1037.45892852695
 21
-15082.2309667031
 31
0.0
  0
LINE
  5
70
330
1F
100
AcDbEntity
  8
0
  6
Continuous
 62
     7
100
AcDbLine
 10
-3317.45892835015
 20
-16590.3155003945
 30
0.0
 11
-3317.45892835015
 21
-16110.3155003945
 31
0.0
  0
LINE
  5
71
330
1F
100
AcDbEntity
  8
0
  6
Continuous
 62
     1
100
AcDbLine
 10
-3053.45886731499
 20
-16590.0124388512
 30
0.0
 11
-3053.45886731499
 21
-16110.3155003945
 31
0.0
  0
LINE
  5
72
330
1F
100
AcDbEntity
  8
0
  6
Continuous
 62
     7
100
AcDbLine
 10
-3317.45892835015
 20
-16590.3155003945
 30
0.0
 11
-2357.458928703751
 21
-16590.3155003945
 31
0.0
  0
LINE
  5
73
330
1F
100
AcDbEntity
  8
0
  6
Continuous
 62
     7
100
AcDbLine
 10
-3317.45892835015
 20
-16110.3155003945
 30
0.0
 11
-2357.458928703751
 21
-16110.3155003945
 31
0.0
  0
LINE
  5
74
330
1F
100
AcDbEntity
  8
0
  6
Continuous
 62
     7
100
AcDbLine
 10
-2357.458928703751
 20
-16590.3155003945
 30
0.0
 11
-2357.458928703751
 21
-16110.3155003945
 31
0.0
  0
LINE
  5
75
330
1F
100
AcDbEntity
  8
1
  6
Continuous
 62
     1
100
AcDbLine
 10
-3317.45892817335
 20
-14691.5584556345
 30
0.0
 11
-2357.45892852695
 21
-14691.5584556345
 31
0.0
  0
LINE
  5
76
330
1F
100
AcDbEntity
  8
1
  6
Continuous
 62
     1
100
AcDbLine
 10
-1037.458928880551
 20
-14691.5159892117
 30
0.0
 11
-557.4589285269503
 21
-14691.5159892117
 31
0.0
  0
LINE
  5
77
330
1F
100
AcDbEntity
  8
1
  6
Continuous
 62
     7
100
AcDbLine
 10
-2357.45892852695
 20
-14772.0576777883
 30
0.0
 11
-2357.45892852695
 21
-14691.5584556345
 31
0.0
  0
LINE
  5
78
330
1F
100
AcDbEntity
  8
1
  6
Continuous
 62
     7
100
AcDbLine
 10
-2357.45892852695
 20
-15082.2309667031
 30
0.0
 11
-2357.45892852695
 21
-14777.3913536289
 31
0.0
  0
LINE
  5
79
330
1F
100
AcDbEntity
  8
1
  6
Continuous
 62
     7
100
AcDbLine
 10
-2357.45892852695
 20
-14777.3913536289
 30
0.0
 11
-3317.45892817335
 21
-14777.3913536289
 31
0.0
  0
LINE
  5
7A
330
1F
100
AcDbEntity
  8
0
  6
Continuous
 62
     7
100
AcDbLine
 10
-3241.513576288131
 20
-14675.9207794081
 30
0.0
 11
-3065.45886731499
 21
-14675.9207794081
 31
0.0
  0
LINE
  5
7B
330
1F
100
AcDbEntity
  8
1
  6
Continuous
 62
     7
100
AcDbLine
 10
-3317.45892852695
 20
-14777.3913536289
 30
0.0
 11
-3317.45892852695
 21
-15082.2309667031
 31
0.0
  0
LINE
  5
7C
330
1F
100
AcDbEntity
  8
1
  6
Continuous
 62
     7
100
AcDbLine
 10
-3317.45892852695
 20
-14691.5584556345
 30
0.0
 11
-3317.45892852695
 21
-14772.0576777883
 31
0.0
  0
LINE
  5
7D
330
1F
100
AcDbEntity
  8
1
  6
Continuous
 62
     7
100
AcDbLine
 10
-557.4589285269503
 20
-15082.2309662075
 30
0.0
 11
-557.4589285269503
 21
-14777.3913536289
 31
0.0
  0
LINE
  5
7E
330
1F
100
AcDbEntity
  8
1
  6
Continuous
 62
     7
100
AcDbLine
 10
-557.4589285269503
 20
-14772.0576777883
 30
0.0
 11
-557.4589285269503
 21
-14691.5584556345
 31
0.0
  0
LINE
  5
7F
330
1F
100
AcDbEntity
  8
1
  6
Continuous
 62
     7
100
AcDbLine
 10
-1037.458928880551
 20
-14691.5159892117
 30
0.0
 11
-1037.458928880551
 21
-14772.0576777883
 31
0.0
  0
LINE
  5
80
330
1F
100
AcDbEntity
  8
1
  6
Continuous
 62
     7
100
AcDbLine
 10
-1037.458928880551
 20
-14777.3913536289
 30
0.0
 11
-1037.458928880551
 21
-15082.2309662075
 31
0.0
  0
LINE
  5
81
330
1F
100
AcDbEntity
  8
1
  6
Continuous
 62
     7
100
AcDbLine
 10
-557.4589285269503
 20
-14777.3913536289
 30
0.0
 11
-1037.45892852695
 21
-14777.3913536289
 31
0.0
  0
LINE
  5
82
330
1F
100
AcDbEntity
  8
1
  6
Continuous
 62
     7
100
AcDbLine
 10
-3053.45886713819
 20
-14687.9207794081
 30
0.0
 11
-3053.45886713819
 21
-14690.9207794081
 31
0.0
  0
LINE
  5
83
330
1F
100
AcDbEntity
  8
1
  6
Continuous
 62
     7
100
AcDbLine
 10
-2621.458989738911
 20
-14687.9207794081
 30
0.0
 11
-2621.458989738911
 21
-14690.9207794081
 31
0.0
  0
LINE
  5
84
330
1F
100
AcDbEntity
  8
0
  6
Continuous
 62
     7
100
AcDbLine
 10
-961.5135762881237
 20
-14675.9207794081
 30
0.0
 11
-633.4042807421793
 21
-14675.920779408
 31
0.0
  0
LINE
  5
85
330
1F
100
AcDbEntity
  8
0
  6
Continuous
 62
     1
100
AcDbLine
 10
-2621.458989915711
 20
-16590.0124388512
 30
0.0
 11
-2621.458989915711
 21
-16110.3155003945
 31
0.0
  0
LINE
  5
86
330
1F
100
AcDbEntity
  8
1
  6
Continuous
 62
     1
100
AcDbLine
 10
1962.0
 20
-6990.315500394499
 30
0.0
 11
2226.00006103516
 21
-6990.315500394499
 31
0.0
  0
LINE
  5
87
330
1F
100
AcDbEntity
  8
1
  6
Continuous
 62
     1
100
AcDbLine
 10
2897.99993878804
 20
-6990.315500394499
 30
0.0
 11
3162.0
 21
-6990.315500394499
 31
0.0
  0
LINE
  5
88
330
1F
100
AcDbEntity
  8
0
  6
Continuous
 62
     1
100
AcDbLine
 10
2897.99993878804
 20
-7590.0124388512
 30
0.0
 11
2897.99993878804
 21
-6390.315500394499
 31
0.0
  0
LINE
  5
89
330
1F
100
AcDbEntity
  8
0
  6
Continuous
 62
     7
100
AcDbLine
 10
3162.0
 20
-7590.315500394499
 30
0.0
 11
3162.0
 21
-6390.315500394499
 31
0.0
  0
LINE
  5
8A
330
1F
100
AcDbEntity
  8
0
  6
Continuous
 62
     7
100
AcDbLine
 10
1962.0
 20
-6390.315500394499
 30
0.0
 11
3162.0
 21
-6390.315500394499
 31
0.0
  0
LINE
  5
8B
330
1F
100
AcDbEntity
  8
0
  6
Continuous
 62
     7
100
AcDbLine
 10
1962.0
 20
-7590.315500394499
 30
0.0
 11
3162.0
 21
-7590.315500394499
 31
0.0
  0
LINE
  5
8C
330
1F
100
AcDbEntity
  8
0
  6
Continuous
 62
     1
100
AcDbLine
 10
2226.00006103516
 20
-7590.0124388512
 30
0.0
 11
2226.00006103516
 21
-6390.315500394499
 31
0.0
  0
LINE
  5
8D
330
1F
100
AcDbEntity
  8
0
  6
Continuous
 62
     7
100
AcDbLine
 10
1962.0
 20
-7590.315500394499
 30
0.0
 11
1962.0
 21
-6390.315500394499
 31
0.0
  0
LINE
  5
8E
330
1F
100
AcDbEntity
  8
1
  6
Continuous
 62
     1
100
AcDbLine
 10
2226.00006103516
 20
-6654.315500394499
 30
0.0
 11
2897.99993878804
 21
-6654.315500394499
 31
0.0
  0
LINE
  5
8F
330
1F
100
AcDbEntity
  8
1
  6
Continuous
 62
     1
100
AcDbLine
 10
2226.00006103516
 20
-7326.315500394499
 30
0.0
 11
2897.99993878804
 21
-7326.315500394499
 31
0.0
  0
LINE
  5
90
330
1F
100
AcDbEntity
  8
1
  6
Continuous
 62
     1
100
AcDbLine
 10
2226.00006103516
 20
-10206.3155003945
 30
0.0
 11
2657.99993843444
 21
-10206.3155003945
 31
0.0
  0
LINE
  5
91
330
1F
100
AcDbEntity
  8
1
  6
Continuous
 62
     1
100
AcDbLine
 10
2226.00006103516
 20
-9774.315500394499
 30
0.0
 11
2657.99993843444
 21
-9774.315500394499
 31
0.0
  0
LINE
  5
96
330
1F
100
AcDbEntity
  8
0
  6
Continuous
 62
     7
100
AcDbLine
 10
5037.94535259243
 20
-8675.920779408099
 30
0.0
 11
5549.999999999997
 21
-8675.920779407968
 31
0.0
  0
LINE
  5
97
330
1F
100
AcDbEntity
  8
1
  6
Continuous
 62
     7
100
AcDbLine
 10
5562.0
 20
-8687.240636758899
 30
0.0
 11
5562.0
 21
-8691.515989211701
 31
0.0
  0
LINE
  5
98
330
1F
100
AcDbEntity
  8
1
  6
Continuous
 62
     7
100
AcDbLine
 10
2657.99993878804
 20
-8687.920779408099
 30
0.0
 11
2657.99993878804
 21
-8690.920779408099
 31
0.0
  0
LINE
  5
99
330
1F
100
AcDbEntity
  8
1
  6
Continuous
 62
     7
100
AcDbLine
 10
2226.00006138876
 20
-8687.920779408099
 30
0.0
 11
2226.00006138876
 21
-8690.920779408099
 31
0.0
  0
LINE
  5
9A
330
1F
100
AcDbEntity
  8
1
  6
Continuous
 62
     7
100
AcDbLine
 10
6162.0
 20
-8777.3913536289
 30
0.0
 11
4962.0000003536
 21
-8777.3913536289
 31
0.0
  0
LINE
  5
9B
330
1F
100
AcDbEntity
  8
1
  6
Continuous
 62
     7
100
AcDbLine
 10
4962.0
 20
-8777.3913536289
 30
0.0
 11
4962.0
 21
-8918.224280472899
 31
0.0
  0
LINE
  5
9C
330
1F
100
AcDbEntity
  8
1
  6
Continuous
 62
     7
100
AcDbLine
 10
4962.0
 20
-8691.515989211701
 30
0.0
 11
4962.0
 21
-8772.0576777883
 31
0.0
  0
LINE
  5
9D
330
1F
100
AcDbEntity
  8
0
  6
Continuous
 62
     7
100
AcDbLine
 10
5574.000000000003
 20
-8675.92077940803
 30
0.0
 11
6087.371541766068
 21
-8675.920779408161
 31
0.0
  0
LINE
  5
9E
330
1F
100
AcDbEntity
  8
1
  6
Continuous
 62
     7
100
AcDbLine
 10
6162.0
 20
-8772.0576777883
 30
0.0
 11
6162.0
 21
-8691.5584556345
 31
0.0
  0
LINE
  5
9F
330
1F
100
AcDbEntity
  8
1
  6
Continuous
 62
     7
100
AcDbLine
 10
6162.0
 20
-8918.224280472899
 30
0.0
 11
6162.0
 21
-8777.3913536289
 31
0.0
  0
LINE
  5
A0
330
1F
100
AcDbEntity
  8
1
  6
Continuous
 62
     7
100
AcDbLine
 10
1962.0
 20
-8691.5584556345
 30
0.0
 11
1962.0
 21
-8772.0576777883
 31
0.0
  0
LINE
  5
A1
330
1F
100
AcDbEntity
  8
1
  6
Continuous
 62
     7
100
AcDbLine
 10
1962.0
 20
-8777.3913536289
 30
0.0
 11
1962.0
 21
-8918.224280472899
 31
0.0
  0
LINE
  5
A2
330
1F
100
AcDbEntity
  8
0
  6
Continuous
 62
     7
100
AcDbLine
 10
2037.94535223882
 20
-8675.920779408099
 30
0.0
 11
2214.00006121196
 21
-8675.920779408099
 31
0.0
  0
LINE
  5
A3
330
1F
100
AcDbEntity
  8
1
  6
Continuous
 62
     7
100
AcDbLine
 10
2922.0
 20
-8777.3913536289
 30
0.0
 11
1962.0000003536
 21
-8777.3913536289
 31
0.0
  0
LINE
  5
A4
330
1F
100
AcDbEntity
  8
1
  6
Continuous
 62
     7
100
AcDbLine
 10
2922.0
 20
-8918.224280472899
 30
0.0
 11
2922.0
 21
-8777.3913536289
 31
0.0
  0
LINE
  5
A5
330
1F
100
AcDbEntity
  8
1
  6
Continuous
 62
     7
100
AcDbLine
 10
2922.0
 20
-8772.0576777883
 30
0.0
 11
2922.0
 21
-8691.5584556345
 31
0.0
  0
LINE
  5
A6
330
1F
100
AcDbEntity
  8
1
  6
Continuous
 62
     1
100
AcDbLine
 10
4962.0
 20
-8691.515989211701
 30
0.0
 11
6162.0
 21
-8691.515989211701
 31
0.0
  0
LINE
  5
A7
330
1F
100
AcDbEntity
  8
1
  6
Continuous
 62
     1
100
AcDbLine
 10
1962.0000003536
 20
-8691.5584556345
 30
0.0
 11
2922.0
 21
-8691.5584556345
 31
0.0
  0
LINE
  5
A8
330
1F
100
AcDbEntity
  8
0
  6
Continuous
 62
     7
100
AcDbLine
 10
6162.0
 20
-8918.224280968499
 30
0.0
 11
4962.0000003536
 21
-8918.224280968499
 31
0.0
  0
LINE
  5
A9
330
1F
100
AcDbEntity
  8
0
  6
Continuous
 62
     7
100
AcDbLine
 10
2238.00006138878
 20
-8675.920779408099
 30
0.0
 11
2645.99993878806
 21
-8675.920779408099
 31
0.0
  0
LINE
  5
AA
330
1F
100
AcDbEntity
  8
0
  6
Continuous
 62
     7
100
AcDbLine
 10
1962.0000003536
 20
-8918.224280472899
 30
0.0
 11
2922.0
 21
-8918.224280472899
 31
0.0
  0
LINE
  5
AB
330
1F
100
AcDbEntity
  8
0
  6
Continuous
 62
     7
100
AcDbLine
 10
2669.99993878804
 20
-8675.920779408099
 30
0.0
 11
2846.05464776117
 21
-8675.920779408099
 31
0.0
  0
LINE
  5
AC
330
1F
100
AcDbEntity
  8
0
  6
Continuous
 62
     7
100
AcDbLine
 10
1962.0
 20
-10590.3155003945
 30
0.0
 11
1962.0
 21
-9390.315500394499
 31
0.0
  0
LINE
  5
AD
330
1F
100
AcDbEntity
  8
0
  6
Continuous
 62
     1
100
AcDbLine
 10
2226.00006103516
 20
-10590.0124388512
 30
0.0
 11
2226.00006103516
 21
-9390.315500394499
 31
0.0
  0
LINE
  5
AE
330
1F
100
AcDbEntity
  8
0
  6
Continuous
 62
     7
100
AcDbLine
 10
1962.0
 20
-10590.3155003945
 30
0.0
 11
2921.9999996464
 21
-10590.3155003945
 31
0.0
  0
LINE
  5
AF
330
1F
100
AcDbEntity
  8
0
  6
Continuous
 62
     7
100
AcDbLine
 10
1962.0
 20
-9390.315500394499
 30
0.0
 11
2921.9999996464
 21
-9390.315500394499
 31
0.0
  0
LINE
  5
B0
330
1F
100
AcDbEntity
  8
0
  6
Continuous
 62
     7
100
AcDbLine
 10
2921.9999996464
 20
-10590.3155003945
 30
0.0
 11
2921.9999996464
 21
-9390.315500394499
 31
0.0
  0
LINE
  5
B1
330
1F
100
AcDbEntity
  8
0
  6
Continuous
 62
     1
100
AcDbLine
 10
2657.99993843444
 20
-10590.0124388512
 30
0.0
 11
2657.99993843444
 21
-9390.315500394499
 31
0.0
  0
LINE
  5
B2
330
1F
100
AcDbEntity
  8
1
  6
Continuous
 62
     1
100
AcDbLine
 10
2657.99993843444
 20
-9990.315500394499
 30
0.0
 11
2921.9999996464
 21
-9990.315500394499
 31
0.0
  0
LINE
  5
B3
330
1F
100
AcDbEntity
  8
1
  6
Continuous
 62
     1
100
AcDbLine
 10
1962.0
 20
-9990.315500394499
 30
0.0
 11
2226.00006103516
 21
-9990.315500394499
 31
0.0
  0
LINE
  5
B4
330
1F
100
AcDbEntity
  8
VOLLE_LIJNEN
  6
Continuous
 62
     4
100
AcDbLine
 10
5110.9558721823
 20
-8945.638380426401
 30
0.0
 11
5110.9558721823
 21
-8918.224280968499
 31
0.0
  0
LINE
  5
B5
330
1F
100
AcDbEntity
  8
VOLLE_LIJNEN
  6
Continuous
 62
     4
100
AcDbLine
 10
5052.5856861237
 20
-8945.638380426401
 30
0.0
 11
5052.5856861237
 21
-8918.224280968499
 31
0.0
  0
LINE
  5
B6
330
1F
100
AcDbEntity
  8
VOLLE_LIJNEN
  6
Continuous
 62
     4
100
AcDbLine
 10
6065.4406829271
 20
-8918.224280968499
 30
0.0
 11
6065.4406829271
 21
-8945.638380426401
 31
0.0
  0
LINE
  5
B7
330
1F
100
AcDbEntity
  8
VOLLE_LIJNEN
  6
Continuous
 62
     4
100
AcDbLine
 10
6007.053303993301
 20
-8945.638380426401
 30
0.0
 11
6007.053303993301
 21
-8918.224280968499
 31
0.0
  0
LINE
  5
B8
330
1F
100
AcDbEntity
  8
VOLLE_LIJNEN
  6
Continuous
 62
     4
100
AcDbLine
 10
2837.973424041
 20
-8945.638379930801
 30
0.0
 11
2837.973424041
 21
-8918.224280472899
 31
0.0
  0
LINE
  5
B9
330
1F
100
AcDbEntity
  8
VOLLE_LIJNEN
  6
Continuous
 62
     4
100
AcDbLine
 10
2779.6204808368
 20
-8945.638379930801
 30
0.0
 11
2779.6204808368
 21
-8918.224280472899
 31
0.0
  0
LINE
  5
BA
330
1F
100
AcDbEntity
  8
VOLLE_LIJNEN
  6
Continuous
 62
     4
100
AcDbLine
 10
2046.009326261
 20
-8945.638379930801
 30
0.0
 11
2046.009326261
 21
-8918.224280472899
 31
0.0
  0
LINE
  5
BB
330
1F
100
AcDbEntity
  8
VOLLE_LIJNEN
  6
Continuous
 62
     4
100
AcDbLine
 10
2104.3794873301
 20
-8918.224280472899
 30
0.0
 11
2104.3794873301
 21
-8945.638379930801
 31
0.0
  0
LINE
  5
BC
330
1F
100
AcDbEntity
  8
VOLLE_LIJNEN
  6
Continuous
 62
     4
100
AcDbLine
 10
2821.0822488413
 20
-8989.390198925001
 30
0.0
 11
2821.0822488413
 21
-8954.4111444467
 31
0.0
  0
LINE
  5
BD
330
1F
100
AcDbEntity
  8
VOLLE_LIJNEN
  6
Continuous
 62
     4
100
AcDbLine
 10
2808.8055613713
 20
-8948.324441811301
 30
0.0
 11
2872.0829638513
 21
-8966.119617388
 31
0.0
  0
LINE
  5
BE
330
1F
100
AcDbEntity
  8
VOLLE_LIJNEN
  6
Continuous
 62
     4
100
AcDbLine
 10
2821.0822488413
 20
-8951.768114733401
 30
0.0
 11
2821.0822488413
 21
-8947.652945083401
 31
0.0
  0
LINE
  5
BF
330
1F
100
AcDbEntity
  8
VOLLE_LIJNEN
  6
Continuous
 62
     4
100
AcDbLine
 10
2821.0822488413
 20
-8954.4111444467
 30
0.0
 11
2863.71485664321
 21
-8966.420917527499
 31
0.0
  0
LINE
  5
C0
330
1F
100
AcDbEntity
  8
VOLLE_LIJNEN
  6
Continuous
 62
     4
100
AcDbLine
 10
2863.71485664321
 20
-8966.420917527499
 30
0.0
 11
2866.555879307
 21
-8967.204367861201
 31
0.0
  0
LINE
  5
C1
330
1F
100
AcDbEntity
  8
VOLLE_LIJNEN
  6
Continuous
 62
     4
100
AcDbLine
 10
2872.0829638513
 20
-8966.119617388
 30
0.0
 11
2887.4417240926
 21
-8970.6222014912
 31
0.0
  0
LINE
  5
C2
330
1F
100
AcDbEntity
  8
VOLLE_LIJNEN
  6
Continuous
 62
     4
100
AcDbLine
 10
2821.0822488413
 20
-8991.034542499499
 30
0.0
 11
2821.0822488413
 21
-8989.390198925001
 31
0.0
  0
LINE
  5
C3
330
1F
100
AcDbEntity
  8
VOLLE_LIJNEN
  6
Continuous
 62
     4
100
AcDbLine
 10
2940.2503898773
 20
-9048.939821218501
 30
0.0
 11
2936.7034097662
 21
-9062.232387702399
 31
0.0
  0
LINE
  5
C4
330
1F
100
AcDbEntity
  8
VOLLE_LIJNEN
  6
Continuous
 62
     4
100
AcDbLine
 10
2934.82835047638
 20
-9045.392841107499
 30
0.0
 11
2959.9627171638
 21
-9045.392841107499
 31
0.0
  0
LINE
  5
C5
330
1F
100
AcDbEntity
  8
VOLLE_LIJNEN
  6
Continuous
 62
     4
100
AcDbLine
 10
2961.9627171638
 20
-9047.392841107499
 30
0.0
 11
2961.9627171638
 21
-9048.6643353814
 31
0.0
  0
LINE
  5
C6
330
1F
100
AcDbEntity
  8
VOLLE_LIJNEN
  6
Continuous
 62
     4
100
AcDbLine
 10
2958.3640834583
 20
-9048.939821218501
 30
0.0
 11
2940.2503898773
 21
-9048.939821218501
 31
0.0
  0
LINE
  5
C7
330
1F
100
AcDbEntity
  8
VOLLE_LIJNEN
  6
Continuous
 62
     4
100
AcDbLine
 10
2927.99639718052
 20
-9059.3052757145
 30
0.0
 11
2923.9962756759
 21
-9059.3052757145
 31
0.0
  0
LINE
  5
C8
330
1F
100
AcDbEntity
  8
VOLLE_LIJNEN
  6
Continuous
 62
     4
100
AcDbLine
 10
2921.8784033344
 20
-9073.6395355146
 30
0.0
 11
2913.0798495057
 21
-9073.6395355146
 31
0.0
  0
LINE
  5
C9
330
1F
100
AcDbEntity
  8
VOLLE_LIJNEN
  6
Continuous
 62
     4
100
AcDbLine
 10
2929.92707703209
 20
-9057.8272673914
 30
0.0
 11
2932.3299471544
 21
-9048.939821218501
 31
0.0
  0
LINE
  5
CA
330
1F
100
AcDbEntity
  8
VOLLE_LIJNEN
  6
Continuous
 62
     4
100
AcDbLine
 10
2932.3299471544
 20
-9048.939821218501
 30
0.0
 11
2932.89964009741
 21
-9046.863618777999
 31
0.0
  0
LINE
  5
CB
330
1F
100
AcDbEntity
  8
VOLLE_LIJNEN
  6
Continuous
 62
     4
100
AcDbLine
 10
2796.5288739014
 20
-8947.652945083401
 30
0.0
 11
2796.5288739014
 21
-9039.891595855201
 31
0.0
  0
LINE
  5
CC
330
1F
100
AcDbEntity
  8
VOLLE_LIJNEN
  6
Continuous
 62
     4
100
AcDbLine
 10
2796.5288739014
 20
-9039.891595855201
 30
0.0
 11
2807.6175037093
 21
-9039.891595855201
 31
0.0
  0
LINE
  5
CD
330
1F
100
AcDbEntity
  8
1
  6
Continuous
 62
     4
100
AcDbLine
 10
2779.6204808368
 20
-8945.638379930801
 30
0.0
 11
2837.9906419059
 21
-8945.638379930801
 31
0.0
  0
LINE
  5
CE
330
1F
100
AcDbEntity
  8
1
  6
Continuous
 62
     4
100
AcDbLine
 10
2046.009326261
 20
-8945.638379930801
 30
0.0
 11
2104.3794873301
 21
-8945.638379930801
 31
0.0
  0
LINE
  5
CF
330
1F
100
AcDbEntity
  8
VOLLE_LIJNEN
  6
Continuous
 62
     4
100
AcDbLine
 10
2062.9177193256
 20
-9039.891595855201
 30
0.0
 11
2074.0063491335
 21
-9039.891595855201
 31
0.0
  0
LINE
  5
D0
330
1F
100
AcDbEntity
  8
VOLLE_LIJNEN
  6
Continuous
 62
     4
100
AcDbLine
 10
2046.009326261
 20
-8945.638379930801
 30
0.0
 11
2046.009326261
 21
-8918.224280472899
 31
0.0
  0
LINE
  5
D1
330
1F
100
AcDbEntity
  8
VOLLE_LIJNEN
  6
Continuous
 62
     4
100
AcDbLine
 10
2062.9177193256
 20
-8947.652945083401
 30
0.0
 11
2062.9177193256
 21
-9039.891595855201
 31
0.0
  0
LINE
  5
D2
330
1F
100
AcDbEntity
  8
VOLLE_LIJNEN
  6
Continuous
 62
     4
100
AcDbLine
 10
2198.7187925786
 20
-9048.939821218501
 30
0.0
 11
2199.2884855216
 21
-9046.863618777999
 31
0.0
  0
LINE
  5
D3
330
1F
100
AcDbEntity
  8
VOLLE_LIJNEN
  6
Continuous
 62
     4
100
AcDbLine
 10
2196.31592245628
 20
-9057.8272673914
 30
0.0
 11
2198.7187925786
 21
-9048.939821218501
 31
0.0
  0
LINE
  5
D4
330
1F
100
AcDbEntity
  8
VOLLE_LIJNEN
  6
Continuous
 62
     4
100
AcDbLine
 10
2188.2672487586
 20
-9073.6395355146
 30
0.0
 11
2179.4686949299
 21
-9073.6395355146
 31
0.0
  0
LINE
  5
D5
330
1F
100
AcDbEntity
  8
VOLLE_LIJNEN
  6
Continuous
 62
     4
100
AcDbLine
 10
2194.38524260472
 20
-9059.3052757145
 30
0.0
 11
2190.3851211001
 21
-9059.3052757145
 31
0.0
  0
LINE
  5
D6
330
1F
100
AcDbEntity
  8
VOLLE_LIJNEN
  6
Continuous
 62
     4
100
AcDbLine
 10
2224.75292888249
 20
-9048.939821218501
 30
0.0
 11
2206.6392353015
 21
-9048.939821218501
 31
0.0
  0
LINE
  5
D7
330
1F
100
AcDbEntity
  8
VOLLE_LIJNEN
  6
Continuous
 62
     4
100
AcDbLine
 10
2228.351562588
 20
-9047.392841107499
 30
0.0
 11
2228.351562588
 21
-9048.6643353814
 31
0.0
  0
LINE
  5
D8
330
1F
100
AcDbEntity
  8
VOLLE_LIJNEN
  6
Continuous
 62
     4
100
AcDbLine
 10
2201.21719590059
 20
-9045.392841107499
 30
0.0
 11
2226.351562588
 21
-9045.392841107499
 31
0.0
  0
LINE
  5
D9
330
1F
100
AcDbEntity
  8
VOLLE_LIJNEN
  6
Continuous
 62
     4
100
AcDbLine
 10
2206.6392353015
 20
-9048.939821218501
 30
0.0
 11
2203.0922551904
 21
-9062.232387702399
 31
0.0
  0
LINE
  5
DA
330
1F
100
AcDbEntity
  8
VOLLE_LIJNEN
  6
Continuous
 62
     4
100
AcDbLine
 10
2087.4710942655
 20
-8991.034542499499
 30
0.0
 11
2087.4710942655
 21
-8989.390198925001
 31
0.0
  0
LINE
  5
DB
330
1F
100
AcDbEntity
  8
VOLLE_LIJNEN
  6
Continuous
 62
     4
100
AcDbLine
 10
2138.4718092755
 20
-8966.119617388
 30
0.0
 11
2153.8305695168
 21
-8970.6222014912
 31
0.0
  0
LINE
  5
DC
330
1F
100
AcDbEntity
  8
VOLLE_LIJNEN
  6
Continuous
 62
     4
100
AcDbLine
 10
2130.10370206741
 20
-8966.420917527499
 30
0.0
 11
2132.9447247312
 21
-8967.204367861201
 31
0.0
  0
LINE
  5
DD
330
1F
100
AcDbEntity
  8
VOLLE_LIJNEN
  6
Continuous
 62
     4
100
AcDbLine
 10
2087.4710942655
 20
-8954.4111444467
 30
0.0
 11
2130.10370206741
 21
-8966.420917527499
 31
0.0
  0
LINE
  5
DE
330
1F
100
AcDbEntity
  8
VOLLE_LIJNEN
  6
Continuous
 62
     4
100
AcDbLine
 10
2087.4710942655
 20
-8951.768114733401
 30
0.0
 11
2087.4710942655
 21
-8947.652945083401
 31
0.0
  0
LINE
  5
DF
330
1F
100
AcDbEntity
  8
VOLLE_LIJNEN
  6
Continuous
 62
     4
100
AcDbLine
 10
2075.1944067955
 20
-8948.324441811301
 30
0.0
 11
2138.4718092755
 21
-8966.119617388
 31
0.0
  0
LINE
  5
E0
330
1F
100
AcDbEntity
  8
VOLLE_LIJNEN
  6
Continuous
 62
     4
100
AcDbLine
 10
2087.4710942655
 20
-8989.390198925001
 30
0.0
 11
2087.4710942655
 21
-8954.4111444467
 31
0.0
  0
LINE
  5
E1
330
1F
100
AcDbEntity
  8
VOLLE_LIJNEN
  6
Continuous
 62
     4
100
AcDbLine
 10
2104.3794873301
 20
-8918.224280472899
 30
0.0
 11
2104.3794873301
 21
-8945.638379930801
 31
0.0
  0
LINE
  5
E2
330
1F
100
AcDbEntity
  8
VOLLE_LIJNEN
  6
Continuous
 62
     4
100
AcDbLine
 10
2837.973424041
 20
-8945.638379930801
 30
0.0
 11
2837.973424041
 21
-8918.224280472899
 31
0.0
  0
LINE
  5
E3
330
1F
100
AcDbEntity
  8
VOLLE_LIJNEN
  6
Continuous
 62
     4
100
AcDbLine
 10
2779.6204808368
 20
-8945.638379930801
 30
0.0
 11
2779.6204808368
 21
-8918.224280472899
 31
0.0
  0
LINE
  5
E4
330
1F
100
AcDbEntity
  8
VOLLE_LIJNEN
  6
Continuous
 62
     4
100
AcDbLine
 10
6007.0704968685
 20
-8945.638380426401
 30
0.0
 11
6007.0704968685
 21
-8918.224280968499
 31
0.0
  0
LINE
  5
E5
330
1F
100
AcDbEntity
  8
VOLLE_LIJNEN
  6
Continuous
 62
     4
100
AcDbLine
 10
6054.7454112977
 20
-9045.392841603099
 30
0.0
 11
6017.80020422751
 21
-9045.392841603099
 31
0.0
  0
LINE
  5
E6
330
1F
100
AcDbEntity
  8
VOLLE_LIJNEN
  6
Continuous
 62
     4
100
AcDbLine
 10
6015.80020422751
 20
-9050.4808830894
 30
0.0
 11
6056.7454112977
 21
-9050.4808830894
 31
0.0
  0
LINE
  5
E7
330
1F
100
AcDbEntity
  8
VOLLE_LIJNEN
  6
Continuous
 62
     4
100
AcDbLine
 10
6015.80020422751
 20
-9047.392841603099
 30
0.0
 11
6015.80020422751
 21
-9050.4808830894
 31
0.0
  0
LINE
  5
E8
330
1F
100
AcDbEntity
  8
VOLLE_LIJNEN
  6
Continuous
 62
     4
100
AcDbLine
 10
6056.7454112977
 20
-9050.4808830894
 30
0.0
 11
6056.7454112977
 21
-9047.392841603099
 31
0.0
  0
LINE
  5
E9
330
1F
100
AcDbEntity
  8
VOLLE_LIJNEN
  6
Continuous
 62
     4
100
AcDbLine
 10
6048.532264873001
 20
-8945.638380426401
 30
0.0
 11
6048.532264873001
 21
-8968.142754484101
 31
0.0
  0
LINE
  5
EA
330
1F
100
AcDbEntity
  8
VOLLE_LIJNEN
  6
Continuous
 62
     4
100
AcDbLine
 10
6023.944479193
 20
-8968.142754484101
 30
0.0
 11
6023.944479193
 21
-8945.638380426401
 31
0.0
  0
LINE
  5
EB
330
1F
100
AcDbEntity
  8
VOLLE_LIJNEN
  6
Continuous
 62
     4
100
AcDbLine
 10
6025.0120118014
 20
-8968.142754484101
 30
0.0
 11
6008.05194015271
 21
-8968.142754484101
 31
0.0
  0
LINE
  5
EC
330
1F
100
AcDbEntity
  8
VOLLE_LIJNEN
  6
Continuous
 62
     4
100
AcDbLine
 10
6065.4406829271
 20
-8945.638380426401
 30
0.0
 11
6065.4406829271
 21
-8918.224280968499
 31
0.0
  0
LINE
  5
ED
330
1F
100
AcDbEntity
  8
VOLLE_LIJNEN
  6
Continuous
 62
     4
100
AcDbLine
 10
6007.0704968685
 20
-8945.638380426401
 30
0.0
 11
6065.4406829271
 21
-8945.638380426401
 31
0.0
  0
LINE
  5
EE
330
1F
100
AcDbEntity
  8
VOLLE_LIJNEN
  6
Continuous
 62
     4
100
AcDbLine
 10
6047.5336037239
 20
-8968.142754484101
 30
0.0
 11
6064.40758604841
 21
-8968.142754484101
 31
0.0
  0
LINE
  5
EF
330
1F
100
AcDbEntity
  8
1
  6
Continuous
 62
     4
100
AcDbLine
 10
6047.5336037239
 20
-8968.142754484101
 30
0.0
 11
6047.5336037239
 21
-9091.0817328634
 31
0.0
  0
LINE
  5
F0
330
1F
100
AcDbEntity
  8
1
  6
Continuous
 62
     4
100
AcDbLine
 10
6064.40758604841
 20
-9091.0817328634
 30
0.0
 11
6064.40758604841
 21
-8968.142754484101
 31
0.0
  0
LINE
  5
F1
330
1F
100
AcDbEntity
  8
1
  6
Continuous
 62
     4
100
AcDbLine
 10
6025.0120118014
 20
-8968.142754484101
 30
0.0
 11
6025.0120118014
 21
-9091.0817328634
 31
0.0
  0
LINE
  5
F2
330
1F
100
AcDbEntity
  8
1
  6
Continuous
 62
     4
100
AcDbLine
 10
6008.05194015271
 20
-9091.0817328634
 30
0.0
 11
6008.05194015271
 21
-8968.142754484101
 31
0.0
  0
LINE
  5
F3
330
1F
100
AcDbEntity
  8
VOLLE_LIJNEN
  6
Continuous
 62
     4
100
AcDbLine
 10
6064.40758604841
 20
-9091.0817328634
 30
0.0
 11
6047.5336037239
 21
-9091.0817328634
 31
0.0
  0
LINE
  5
F4
330
1F
100
AcDbEntity
  8
VOLLE_LIJNEN
  6
Continuous
 62
     4
100
AcDbLine
 10
6008.05194015271
 20
-9091.0817328634
 30
0.0
 11
6025.0120118014
 21
-9091.0817328634
 31
0.0
  0
LINE
  5
F5
330
1F
100
AcDbEntity
  8
VOLLE_LIJNEN
  6
Continuous
 62
     4
100
AcDbLine
 10
5053.56712940791
 20
-9091.0817328634
 30
0.0
 11
5070.5272010566
 21
-9091.0817328634
 31
0.0
  0
LINE
  5
F6
330
1F
100
AcDbEntity
  8
VOLLE_LIJNEN
  6
Continuous
 62
     4
100
AcDbLine
 10
5109.92277530361
 20
-9091.0817328634
 30
0.0
 11
5093.0487929791
 21
-9091.0817328634
 31
0.0
  0
LINE
  5
F7
330
1F
100
AcDbEntity
  8
1
  6
Continuous
 62
     4
100
AcDbLine
 10
5053.56712940791
 20
-9091.0817328634
 30
0.0
 11
5053.56712940791
 21
-8968.142754484101
 31
0.0
  0
LINE
  5
F8
330
1F
100
AcDbEntity
  8
1
  6
Continuous
 62
     4
100
AcDbLine
 10
5070.5272010566
 20
-8968.142754484101
 30
0.0
 11
5070.5272010566
 21
-9091.0817328634
 31
0.0
  0
LINE
  5
F9
330
1F
100
AcDbEntity
  8
1
  6
Continuous
 62
     4
100
AcDbLine
 10
5109.92277530361
 20
-9091.0817328634
 30
0.0
 11
5109.92277530361
 21
-8968.142754484101
 31
0.0
  0
LINE
  5
FA
330
1F
100
AcDbEntity
  8
1
  6
Continuous
 62
     4
100
AcDbLine
 10
5093.0487929791
 20
-8968.142754484101
 30
0.0
 11
5093.0487929791
 21
-9091.0817328634
 31
0.0
  0
LINE
  5
FB
330
1F
100
AcDbEntity
  8
VOLLE_LIJNEN
  6
Continuous
 62
     4
100
AcDbLine
 10
5093.0487929791
 20
-8968.142754484101
 30
0.0
 11
5109.92277530361
 21
-8968.142754484101
 31
0.0
  0
LINE
  5
FC
330
1F
100
AcDbEntity
  8
VOLLE_LIJNEN
  6
Continuous
 62
     4
100
AcDbLine
 10
5052.5856861237
 20
-8945.638380426401
 30
0.0
 11
5110.9558721823
 21
-8945.638380426401
 31
0.0
  0
LINE
  5
FD
330
1F
100
AcDbEntity
  8
VOLLE_LIJNEN
  6
Continuous
 62
     4
100
AcDbLine
 10
5110.9558721823
 20
-8945.638380426401
 30
0.0
 11
5110.9558721823
 21
-8918.224280968499
 31
0.0
  0
LINE
  5
FE
330
1F
100
AcDbEntity
  8
VOLLE_LIJNEN
  6
Continuous
 62
     4
100
AcDbLine
 10
5070.5272010566
 20
-8968.142754484101
 30
0.0
 11
5053.56712940791
 21
-8968.142754484101
 31
0.0
  0
LINE
  5
FF
330
1F
100
AcDbEntity
  8
VOLLE_LIJNEN
  6
Continuous
 62
     4
100
AcDbLine
 10
5069.45966844819
 20
-8968.142754484101
 30
0.0
 11
5069.45966844819
 21
-8945.638380426401
 31
0.0
  0
LINE
  5
100
330
1F
100
AcDbEntity
  8
VOLLE_LIJNEN
  6
Continuous
 62
     4
100
AcDbLine
 10
5094.0474541282
 20
-8945.638380426401
 30
0.0
 11
5094.0474541282
 21
-8968.142754484101
 31
0.0
  0
LINE
  5
101
330
1F
100
AcDbEntity
  8
VOLLE_LIJNEN
  6
Continuous
 62
     4
100
AcDbLine
 10
5102.26060055291
 20
-9050.4808830894
 30
0.0
 11
5102.26060055291
 21
-9047.392841603099
 31
0.0
  0
LINE
  5
102
330
1F
100
AcDbEntity
  8
VOLLE_LIJNEN
  6
Continuous
 62
     4
100
AcDbLine
 10
5061.31539348271
 20
-9047.392841603099
 30
0.0
 11
5061.31539348271
 21
-9050.4808830894
 31
0.0
  0
LINE
  5
103
330
1F
100
AcDbEntity
  8
VOLLE_LIJNEN
  6
Continuous
 62
     4
100
AcDbLine
 10
5061.31539348271
 20
-9050.4808830894
 30
0.0
 11
5102.26060055291
 21
-9050.4808830894
 31
0.0
  0
LINE
  5
104
330
1F
100
AcDbEntity
  8
VOLLE_LIJNEN
  6
Continuous
 62
     4
100
AcDbLine
 10
5100.26060055291
 20
-9045.392841603099
 30
0.0
 11
5063.31539348271
 21
-9045.392841603099
 31
0.0
  0
LINE
  5
105
330
1F
100
AcDbEntity
  8
VOLLE_LIJNEN
  6
Continuous
 62
     4
100
AcDbLine
 10
5052.5856861237
 20
-8945.638380426401
 30
0.0
 11
5052.5856861237
 21
-8918.224280968499
 31
0.0
  0
LINE
  5
106
330
1F
100
AcDbEntity
  8
VOLLE_LIJNEN
  6
Continuous
 62
     4
100
AcDbLine
 10
6065.4406829271
 20
-8918.224280968499
 30
0.0
 11
6065.4406829271
 21
-8945.638380426401
 31
0.0
  0
LINE
  5
107
330
1F
100
AcDbEntity
  8
VOLLE_LIJNEN
  6
Continuous
 62
     4
100
AcDbLine
 10
6007.053303993301
 20
-8945.638380426401
 30
0.0
 11
6007.053303993301
 21
-8918.224280968499
 31
0.0
  0
LINE
  5
108
330
1F
100
AcDbEntity
  8
VOLLE_LIJNEN
  6
Continuous
 62
     4
100
AcDbLine
 10
6007.053303993301
 20
-5945.638380426402
 30
0.0
 11
6007.053303993301
 21
-5918.224280968499
 31
0.0
  0
LINE
  5
109
330
1F
100
AcDbEntity
  8
VOLLE_LIJNEN
  6
Continuous
 62
     4
100
AcDbLine
 10
6065.4406829271
 20
-5918.224280968499
 30
0.0
 11
6065.4406829271
 21
-5945.638380426402
 31
0.0
  0
LINE
  5
10A
330
1F
100
AcDbEntity
  8
VOLLE_LIJNEN
  6
Continuous
 62
     4
100
AcDbLine
 10
5052.5856861237
 20
-5945.638380426402
 30
0.0
 11
5052.5856861237
 21
-5918.224280968499
 31
0.0
  0
LINE
  5
10B
330
1F
100
AcDbEntity
  8
VOLLE_LIJNEN
  6
Continuous
 62
     4
100
AcDbLine
 10
5100.26060055291
 20
-6045.392841603099
 30
0.0
 11
5063.31539348271
 21
-6045.392841603099
 31
0.0
  0
LINE
  5
10C
330
1F
100
AcDbEntity
  8
VOLLE_LIJNEN
  6
Continuous
 62
     4
100
AcDbLine
 10
5061.31539348271
 20
-6050.4808830894
 30
0.0
 11
5102.26060055291
 21
-6050.4808830894
 31
0.0
  0
LINE
  5
10D
330
1F
100
AcDbEntity
  8
VOLLE_LIJNEN
  6
Continuous
 62
     4
100
AcDbLine
 10
5061.31539348271
 20
-6047.392841603099
 30
0.0
 11
5061.31539348271
 21
-6050.4808830894
 31
0.0
  0
LINE
  5
10E
330
1F
100
AcDbEntity
  8
VOLLE_LIJNEN
  6
Continuous
 62
     4
100
AcDbLine
 10
5102.26060055291
 20
-6050.4808830894
 30
0.0
 11
5102.26060055291
 21
-6047.392841603099
 31
0.0
  0
LINE
  5
10F
330
1F
100
AcDbEntity
  8
VOLLE_LIJNEN
  6
Continuous
 62
     4
100
AcDbLine
 10
5094.0474541282
 20
-5945.638380426402
 30
0.0
 11
5094.0474541282
 21
-5968.142754484101
 31
0.0
  0
LINE
  5
110
330
1F
100
AcDbEntity
  8
VOLLE_LIJNEN
  6
Continuous
 62
     4
100
AcDbLine
 10
5069.45966844819
 20
-5968.142754484101
 30
0.0
 11
5069.45966844819
 21
-5945.638380426402
 31
0.0
  0
LINE
  5
111
330
1F
100
AcDbEntity
  8
VOLLE_LIJNEN
  6
Continuous
 62
     4
100
AcDbLine
 10
5070.5272010566
 20
-5968.142754484101
 30
0.0
 11
5053.56712940791
 21
-5968.142754484101
 31
0.0
  0
LINE
  5
112
330
1F
100
AcDbEntity
  8
VOLLE_LIJNEN
  6
Continuous
 62
     4
100
AcDbLine
 10
5110.9558721823
 20
-5945.638380426402
 30
0.0
 11
5110.9558721823
 21
-5918.224280968499
 31
0.0
  0
LINE
  5
113
330
1F
100
AcDbEntity
  8
VOLLE_LIJNEN
  6
Continuous
 62
     4
100
AcDbLine
 10
5052.5856861237
 20
-5945.638380426402
 30
0.0
 11
5110.9558721823
 21
-5945.638380426402
 31
0.0
  0
LINE
  5
114
330
1F
100
AcDbEntity
  8
VOLLE_LIJNEN
  6
Continuous
 62
     4
100
AcDbLine
 10
5093.0487929791
 20
-5968.142754484101
 30
0.0
 11
5109.92277530361
 21
-5968.142754484101
 31
0.0
  0
LINE
  5
115
330
1F
100
AcDbEntity
  8
1
  6
Continuous
 62
     4
100
AcDbLine
 10
5093.0487929791
 20
-5968.142754484101
 30
0.0
 11
5093.0487929791
 21
-6091.0817328634
 31
0.0
  0
LINE
  5
116
330
1F
100
AcDbEntity
  8
1
  6
Continuous
 62
     4
100
AcDbLine
 10
5109.92277530361
 20
-6091.0817328634
 30
0.0
 11
5109.92277530361
 21
-5968.142754484101
 31
0.0
  0
LINE
  5
117
330
1F
100
AcDbEntity
  8
1
  6
Continuous
 62
     4
100
AcDbLine
 10
5070.5272010566
 20
-5968.142754484101
 30
0.0
 11
5070.5272010566
 21
-6091.0817328634
 31
0.0
  0
LINE
  5
118
330
1F
100
AcDbEntity
  8
1
  6
Continuous
 62
     4
100
AcDbLine
 10
5053.56712940791
 20
-6091.0817328634
 30
0.0
 11
5053.56712940791
 21
-5968.142754484101
 31
0.0
  0
LINE
  5
119
330
1F
100
AcDbEntity
  8
VOLLE_LIJNEN
  6
Continuous
 62
     4
100
AcDbLine
 10
5109.92277530361
 20
-6091.0817328634
 30
0.0
 11
5093.0487929791
 21
-6091.0817328634
 31
0.0
  0
LINE
  5
11A
330
1F
100
AcDbEntity
  8
VOLLE_LIJNEN
  6
Continuous
 62
     4
100
AcDbLine
 10
5053.56712940791
 20
-6091.0817328634
 30
0.0
 11
5070.5272010566
 21
-6091.0817328634
 31
0.0
  0
LINE
  5
11B
330
1F
100
AcDbEntity
  8
VOLLE_LIJNEN
  6
Continuous
 62
     4
100
AcDbLine
 10
6008.05194015271
 20
-6091.0817328634
 30
0.0
 11
6025.0120118014
 21
-6091.0817328634
 31
0.0
  0
LINE
  5
11C
330
1F
100
AcDbEntity
  8
VOLLE_LIJNEN
  6
Continuous
 62
     4
100
AcDbLine
 10
6064.40758604841
 20
-6091.0817328634
 30
0.0
 11
6047.5336037239
 21
-6091.0817328634
 31
0.0
  0
LINE
  5
11D
330
1F
100
AcDbEntity
  8
1
  6
Continuous
 62
     4
100
AcDbLine
 10
6008.05194015271
 20
-6091.0817328634
 30
0.0
 11
6008.05194015271
 21
-5968.142754484101
 31
0.0
  0
LINE
  5
11E
330
1F
100
AcDbEntity
  8
1
  6
Continuous
 62
     4
100
AcDbLine
 10
6025.0120118014
 20
-5968.142754484101
 30
0.0
 11
6025.0120118014
 21
-6091.0817328634
 31
0.0
  0
LINE
  5
11F
330
1F
100
AcDbEntity
  8
1
  6
Continuous
 62
     4
100
AcDbLine
 10
6064.40758604841
 20
-6091.0817328634
 30
0.0
 11
6064.40758604841
 21
-5968.142754484101
 31
0.0
  0
LINE
  5
120
330
1F
100
AcDbEntity
  8
1
  6
Continuous
 62
     4
100
AcDbLine
 10
6047.5336037239
 20
-5968.142754484101
 30
0.0
 11
6047.5336037239
 21
-6091.0817328634
 31
0.0
  0
LINE
  5
121
330
1F
100
AcDbEntity
  8
VOLLE_LIJNEN
  6
Continuous
 62
     4
100
AcDbLine
 10
6047.5336037239
 20
-5968.142754484101
 30
0.0
 11
6064.40758604841
 21
-5968.142754484101
 31
0.0
  0
LINE
  5
122
330
1F
100
AcDbEntity
  8
VOLLE_LIJNEN
  6
Continuous
 62
     4
100
AcDbLine
 10
6007.0704968685
 20
-5945.638380426402
 30
0.0
 11
6065.4406829271
 21
-5945.638380426402
 31
0.0
  0
LINE
  5
123
330
1F
100
AcDbEntity
  8
VOLLE_LIJNEN
  6
Continuous
 62
     4
100
AcDbLine
 10
6065.4406829271
 20
-5945.638380426402
 30
0.0
 11
6065.4406829271
 21
-5918.224280968499
 31
0.0
  0
LINE
  5
124
330
1F
100
AcDbEntity
  8
VOLLE_LIJNEN
  6
Continuous
 62
     4
100
AcDbLine
 10
6025.0120118014
 20
-5968.142754484101
 30
0.0
 11
6008.05194015271
 21
-5968.142754484101
 31
0.0
  0
LINE
  5
125
330
1F
100
AcDbEntity
  8
VOLLE_LIJNEN
  6
Continuous
 62
     4
100
AcDbLine
 10
6023.944479193
 20
-5968.142754484101
 30
0.0
 11
6023.944479193
 21
-5945.638380426402
 31
0.0
  0
LINE
  5
126
330
1F
100
AcDbEntity
  8
VOLLE_LIJNEN
  6
Continuous
 62
     4
100
AcDbLine
 10
6048.532264873001
 20
-5945.638380426402
 30
0.0
 11
6048.532264873001
 21
-5968.142754484101
 31
0.0
  0
LINE
  5
127
330
1F
100
AcDbEntity
  8
VOLLE_LIJNEN
  6
Continuous
 62
     4
100
AcDbLine
 10
6056.7454112977
 20
-6050.4808830894
 30
0.0
 11
6056.7454112977
 21
-6047.392841603099
 31
0.0
  0
LINE
  5
128
330
1F
100
AcDbEntity
  8
VOLLE_LIJNEN
  6
Continuous
 62
     4
100
AcDbLine
 10
6015.80020422751
 20
-6047.392841603099
 30
0.0
 11
6015.80020422751
 21
-6050.4808830894
 31
0.0
  0
LINE
  5
129
330
1F
100
AcDbEntity
  8
VOLLE_LIJNEN
  6
Continuous
 62
     4
100
AcDbLine
 10
6015.80020422751
 20
-6050.4808830894
 30
0.0
 11
6056.7454112977
 21
-6050.4808830894
 31
0.0
  0
LINE
  5
12A
330
1F
100
AcDbEntity
  8
VOLLE_LIJNEN
  6
Continuous
 62
     4
100
AcDbLine
 10
6054.7454112977
 20
-6045.392841603099
 30
0.0
 11
6017.80020422751
 21
-6045.392841603099
 31
0.0
  0
LINE
  5
12B
330
1F
100
AcDbEntity
  8
VOLLE_LIJNEN
  6
Continuous
 62
     4
100
AcDbLine
 10
6007.0704968685
 20
-5945.638380426402
 30
0.0
 11
6007.0704968685
 21
-5918.224280968499
 31
0.0
  0
LINE
  5
12C
330
1F
100
AcDbEntity
  8
VOLLE_LIJNEN
  6
Continuous
 62
     4
100
AcDbLine
 10
3019.6204808368
 20
-5945.638379930801
 30
0.0
 11
3019.6204808368
 21
-5918.224280472899
 31
0.0
  0
LINE
  5
12D
330
1F
100
AcDbEntity
  8
VOLLE_LIJNEN
  6
Continuous
 62
     4
100
AcDbLine
 10
3077.973424041
 20
-5945.638379930801
 30
0.0
 11
3077.973424041
 21
-5918.224280472899
 31
0.0
  0
LINE
  5
12E
330
1F
100
AcDbEntity
  8
VOLLE_LIJNEN
  6
Continuous
 62
     4
100
AcDbLine
 10
2104.3794873301
 20
-5918.224280472899
 30
0.0
 11
2104.3794873301
 21
-5945.638379930801
 31
0.0
  0
LINE
  5
12F
330
1F
100
AcDbEntity
  8
VOLLE_LIJNEN
  6
Continuous
 62
     4
100
AcDbLine
 10
2087.4710942655
 20
-5989.390198925001
 30
0.0
 11
2087.4710942655
 21
-5954.4111444467
 31
0.0
  0
LINE
  5
130
330
1F
100
AcDbEntity
  8
VOLLE_LIJNEN
  6
Continuous
 62
     4
100
AcDbLine
 10
2075.1944067955
 20
-5948.324441811301
 30
0.0
 11
2138.4718092755
 21
-5966.119617388
 31
0.0
  0
LINE
  5
131
330
1F
100
AcDbEntity
  8
VOLLE_LIJNEN
  6
Continuous
 62
     4
100
AcDbLine
 10
2087.4710942655
 20
-5951.768114733401
 30
0.0
 11
2087.4710942655
 21
-5947.652945083401
 31
0.0
  0
LINE
  5
132
330
1F
100
AcDbEntity
  8
VOLLE_LIJNEN
  6
Continuous
 62
     4
100
AcDbLine
 10
2087.4710942655
 20
-5954.4111444467
 30
0.0
 11
2130.10370206741
 21
-5966.420917527499
 31
0.0
  0
LINE
  5
133
330
1F
100
AcDbEntity
  8
VOLLE_LIJNEN
  6
Continuous
 62
     4
100
AcDbLine
 10
2130.10370206741
 20
-5966.420917527499
 30
0.0
 11
2132.9447247312
 21
-5967.204367861201
 31
0.0
  0
LINE
  5
134
330
1F
100
AcDbEntity
  8
VOLLE_LIJNEN
  6
Continuous
 62
     4
100
AcDbLine
 10
2138.4718092755
 20
-5966.119617388
 30
0.0
 11
2153.8305695168
 21
-5970.6222014912
 31
0.0
  0
LINE
  5
135
330
1F
100
AcDbEntity
  8
VOLLE_LIJNEN
  6
Continuous
 62
     4
100
AcDbLine
 10
2087.4710942655
 20
-5991.034542499499
 30
0.0
 11
2087.4710942655
 21
-5989.390198925001
 31
0.0
  0
LINE
  5
136
330
1F
100
AcDbEntity
  8
VOLLE_LIJNEN
  6
Continuous
 62
     4
100
AcDbLine
 10
2206.6392353015
 20
-6048.939821218501
 30
0.0
 11
2203.0922551904
 21
-6062.232387702399
 31
0.0
  0
LINE
  5
137
330
1F
100
AcDbEntity
  8
VOLLE_LIJNEN
  6
Continuous
 62
     4
100
AcDbLine
 10
2201.21719590059
 20
-6045.392841107499
 30
0.0
 11
2226.351562588
 21
-6045.392841107499
 31
0.0
  0
LINE
  5
138
330
1F
100
AcDbEntity
  8
VOLLE_LIJNEN
  6
Continuous
 62
     4
100
AcDbLine
 10
2228.351562588
 20
-6047.392841107499
 30
0.0
 11
2228.351562588
 21
-6048.6643353814
 31
0.0
  0
LINE
  5
139
330
1F
100
AcDbEntity
  8
VOLLE_LIJNEN
  6
Continuous
 62
     4
100
AcDbLine
 10
2224.75292888249
 20
-6048.939821218501
 30
0.0
 11
2206.6392353015
 21
-6048.939821218501
 31
0.0
  0
LINE
  5
13A
330
1F
100
AcDbEntity
  8
VOLLE_LIJNEN
  6
Continuous
 62
     4
100
AcDbLine
 10
2194.38524260472
 20
-6059.3052757145
 30
0.0
 11
2190.3851211001
 21
-6059.3052757145
 31
0.0
  0
LINE
  5
13B
330
1F
100
AcDbEntity
  8
VOLLE_LIJNEN
  6
Continuous
 62
     4
100
AcDbLine
 10
2188.2672487586
 20
-6073.6395355146
 30
0.0
 11
2179.4686949299
 21
-6073.6395355146
 31
0.0
  0
LINE
  5
13C
330
1F
100
AcDbEntity
  8
VOLLE_LIJNEN
  6
Continuous
 62
     4
100
AcDbLine
 10
2196.31592245628
 20
-6057.8272673914
 30
0.0
 11
2198.7187925786
 21
-6048.939821218501
 31
0.0
  0
LINE
  5
13D
330
1F
100
AcDbEntity
  8
VOLLE_LIJNEN
  6
Continuous
 62
     4
100
AcDbLine
 10
2198.7187925786
 20
-6048.939821218501
 30
0.0
 11
2199.2884855216
 21
-6046.863618777999
 31
0.0
  0
LINE
  5
13E
330
1F
100
AcDbEntity
  8
VOLLE_LIJNEN
  6
Continuous
 62
     4
100
AcDbLine
 10
2062.9177193256
 20
-5947.652945083401
 30
0.0
 11
2062.9177193256
 21
-6039.891595855201
 31
0.0
  0
LINE
  5
13F
330
1F
100
AcDbEntity
  8
VOLLE_LIJNEN
  6
Continuous
 62
     4
100
AcDbLine
 10
2046.009326261
 20
-5945.638379930801
 30
0.0
 11
2046.009326261
 21
-5918.224280472899
 31
0.0
  0
LINE
  5
140
330
1F
100
AcDbEntity
  8
VOLLE_LIJNEN
  6
Continuous
 62
     4
100
AcDbLine
 10
2062.9177193256
 20
-6039.891595855201
 30
0.0
 11
2074.0063491335
 21
-6039.891595855201
 31
0.0
  0
LINE
  5
141
330
1F
100
AcDbEntity
  8
1
  6
Continuous
 62
     4
100
AcDbLine
 10
2046.009326261
 20
-5945.638379930801
 30
0.0
 11
2104.3794873301
 21
-5945.638379930801
 31
0.0
  0
LINE
  5
142
330
1F
100
AcDbEntity
  8
1
  6
Continuous
 62
     4
100
AcDbLine
 10
3019.6204808368
 20
-5945.638379930801
 30
0.0
 11
3077.9906419059
 21
-5945.638379930801
 31
0.0
  0
LINE
  5
143
330
1F
100
AcDbEntity
  8
VOLLE_LIJNEN
  6
Continuous
 62
     4
100
AcDbLine
 10
3036.5288739014
 20
-6039.891595855201
 30
0.0
 11
3047.6175037093
 21
-6039.891595855201
 31
0.0
  0
LINE
  5
144
330
1F
100
AcDbEntity
  8
VOLLE_LIJNEN
  6
Continuous
 62
     4
100
AcDbLine
 10
3036.5288739014
 20
-5947.652945083401
 30
0.0
 11
3036.5288739014
 21
-6039.891595855201
 31
0.0
  0
LINE
  5
145
330
1F
100
AcDbEntity
  8
VOLLE_LIJNEN
  6
Continuous
 62
     4
100
AcDbLine
 10
3172.3299471544
 20
-6048.939821218501
 30
0.0
 11
3172.89964009741
 21
-6046.863618777999
 31
0.0
  0
LINE
  5
146
330
1F
100
AcDbEntity
  8
VOLLE_LIJNEN
  6
Continuous
 62
     4
100
AcDbLine
 10
3169.92707703209
 20
-6057.8272673914
 30
0.0
 11
3172.3299471544
 21
-6048.939821218501
 31
0.0
  0
LINE
  5
147
330
1F
100
AcDbEntity
  8
VOLLE_LIJNEN
  6
Continuous
 62
     4
100
AcDbLine
 10
3161.8784033344
 20
-6073.6395355146
 30
0.0
 11
3153.0798495057
 21
-6073.6395355146
 31
0.0
  0
LINE
  5
148
330
1F
100
AcDbEntity
  8
VOLLE_LIJNEN
  6
Continuous
 62
     4
100
AcDbLine
 10
3167.99639718052
 20
-6059.3052757145
 30
0.0
 11
3163.9962756759
 21
-6059.3052757145
 31
0.0
  0
LINE
  5
149
330
1F
100
AcDbEntity
  8
VOLLE_LIJNEN
  6
Continuous
 62
     4
100
AcDbLine
 10
3198.3640834583
 20
-6048.939821218501
 30
0.0
 11
3180.2503898773
 21
-6048.939821218501
 31
0.0
  0
LINE
  5
14A
330
1F
100
AcDbEntity
  8
VOLLE_LIJNEN
  6
Continuous
 62
     4
100
AcDbLine
 10
3201.9627171638
 20
-6047.392841107499
 30
0.0
 11
3201.9627171638
 21
-6048.6643353814
 31
0.0
  0
LINE
  5
14B
330
1F
100
AcDbEntity
  8
VOLLE_LIJNEN
  6
Continuous
 62
     4
100
AcDbLine
 10
3174.82835047638
 20
-6045.392841107499
 30
0.0
 11
3199.9627171638
 21
-6045.392841107499
 31
0.0
  0
LINE
  5
14C
330
1F
100
AcDbEntity
  8
VOLLE_LIJNEN
  6
Continuous
 62
     4
100
AcDbLine
 10
3180.2503898773
 20
-6048.939821218501
 30
0.0
 11
3176.7034097662
 21
-6062.232387702399
 31
0.0
  0
LINE
  5
14D
330
1F
100
AcDbEntity
  8
VOLLE_LIJNEN
  6
Continuous
 62
     4
100
AcDbLine
 10
3061.0822488413
 20
-5991.034542499499
 30
0.0
 11
3061.0822488413
 21
-5989.390198925001
 31
0.0
  0
LINE
  5
14E
330
1F
100
AcDbEntity
  8
VOLLE_LIJNEN
  6
Continuous
 62
     4
100
AcDbLine
 10
3112.0829638513
 20
-5966.119617388
 30
0.0
 11
3127.4417240926
 21
-5970.6222014912
 31
0.0
  0
LINE
  5
14F
330
1F
100
AcDbEntity
  8
VOLLE_LIJNEN
  6
Continuous
 62
     4
100
AcDbLine
 10
3103.71485664321
 20
-5966.420917527499
 30
0.0
 11
3106.555879307
 21
-5967.204367861201
 31
0.0
  0
LINE
  5
150
330
1F
100
AcDbEntity
  8
VOLLE_LIJNEN
  6
Continuous
 62
     4
100
AcDbLine
 10
3061.0822488413
 20
-5954.4111444467
 30
0.0
 11
3103.71485664321
 21
-5966.420917527499
 31
0.0
  0
LINE
  5
151
330
1F
100
AcDbEntity
  8
VOLLE_LIJNEN
  6
Continuous
 62
     4
100
AcDbLine
 10
3061.0822488413
 20
-5951.768114733401
 30
0.0
 11
3061.0822488413
 21
-5947.652945083401
 31
0.0
  0
LINE
  5
152
330
1F
100
AcDbEntity
  8
VOLLE_LIJNEN
  6
Continuous
 62
     4
100
AcDbLine
 10
3048.8055613713
 20
-5948.324441811301
 30
0.0
 11
3112.0829638513
 21
-5966.119617388
 31
0.0
  0
LINE
  5
153
330
1F
100
AcDbEntity
  8
VOLLE_LIJNEN
  6
Continuous
 62
     4
100
AcDbLine
 10
3061.0822488413
 20
-5989.390198925001
 30
0.0
 11
3061.0822488413
 21
-5954.4111444467
 31
0.0
  0
LINE
  5
154
330
1F
100
AcDbEntity
  8
VOLLE_LIJNEN
  6
Continuous
 62
     4
100
AcDbLine
 10
2104.3794873301
 20
-5918.224280472899
 30
0.0
 11
2104.3794873301
 21
-5945.638379930801
 31
0.0
  0
LINE
  5
155
330
1F
100
AcDbEntity
  8
VOLLE_LIJNEN
  6
Continuous
 62
     4
100
AcDbLine
 10
2046.009326261
 20
-5945.638379930801
 30
0.0
 11
2046.009326261
 21
-5918.224280472899
 31
0.0
  0
LINE
  5
156
330
1F
100
AcDbEntity
  8
VOLLE_LIJNEN
  6
Continuous
 62
     4
100
AcDbLine
 10
3019.6204808368
 20
-5945.638379930801
 30
0.0
 11
3019.6204808368
 21
-5918.224280472899
 31
0.0
  0
LINE
  5
157
330
1F
100
AcDbEntity
  8
VOLLE_LIJNEN
  6
Continuous
 62
     4
100
AcDbLine
 10
3077.973424041
 20
-5945.638379930801
 30
0.0
 11
3077.973424041
 21
-5918.224280472899
 31
0.0
  0
LINE
  5
158
330
1F
100
AcDbEntity
  8
VOLLE_LIJNEN
  6
Continuous
 62
     4
100
AcDbLine
 10
6007.053303993301
 20
-5945.638380426402
 30
0.0
 11
6007.053303993301
 21
-5918.224280968499
 31
0.0
  0
LINE
  5
159
330
1F
100
AcDbEntity
  8
VOLLE_LIJNEN
  6
Continuous
 62
     4
100
AcDbLine
 10
6065.4406829271
 20
-5918.224280968499
 30
0.0
 11
6065.4406829271
 21
-5945.638380426402
 31
0.0
  0
LINE
  5
15A
330
1F
100
AcDbEntity
  8
VOLLE_LIJNEN
  6
Continuous
 62
     4
100
AcDbLine
 10
5052.5856861237
 20
-5945.638380426402
 30
0.0
 11
5052.5856861237
 21
-5918.224280968499
 31
0.0
  0
LINE
  5
15B
330
1F
100
AcDbEntity
  8
VOLLE_LIJNEN
  6
Continuous
 62
     4
100
AcDbLine
 10
5110.9558721823
 20
-5945.638380426402
 30
0.0
 11
5110.9558721823
 21
-5918.224280968499
 31
0.0
  0
LINE
  5
15C
330
1F
100
AcDbEntity
  8
0
  6
Continuous
 62
     7
100
AcDbLine
 10
2909.99993878804
 20
-5675.920779408099
 30
0.0
 11
3086.05464776117
 21
-5675.920779408099
 31
0.0
  0
LINE
  5
15D
330
1F
100
AcDbEntity
  8
0
  6
Continuous
 62
     7
100
AcDbLine
 10
1962.0000003536
 20
-5918.224280472899
 30
0.0
 11
3162.0
 21
-5918.224280472899
 31
0.0
  0
LINE
  5
15E
330
1F
100
AcDbEntity
  8
0
  6
Continuous
 62
     7
100
AcDbLine
 10
2238.00006138878
 20
-5675.920779408099
 30
0.0
 11
2885.99993878806
 21
-5675.920779408099
 31
0.0
  0
LINE
  5
15F
330
1F
100
AcDbEntity
  8
0
  6
Continuous
 62
     7
100
AcDbLine
 10
6162.0
 20
-5918.224280968499
 30
0.0
 11
4962.0000003536
 21
-5918.224280968499
 31
0.0
  0
LINE
  5
160
330
1F
100
AcDbEntity
  8
1
  6
Continuous
 62
     1
100
AcDbLine
 10
1962.0000003536
 20
-5691.5584556345
 30
0.0
 11
3162.0
 21
-5691.5584556345
 31
0.0
  0
LINE
  5
161
330
1F
100
AcDbEntity
  8
1
  6
Continuous
 62
     1
100
AcDbLine
 10
4962.0
 20
-5691.515989211701
 30
0.0
 11
6162.0
 21
-5691.515989211701
 31
0.0
  0
LINE
  5
162
330
1F
100
AcDbEntity
  8
1
  6
Continuous
 62
     7
100
AcDbLine
 10
3162.0
 20
-5772.0576777883
 30
0.0
 11
3162.0
 21
-5691.5584556345
 31
0.0
  0
LINE
  5
163
330
1F
100
AcDbEntity
  8
1
  6
Continuous
 62
     7
100
AcDbLine
 10
3162.0
 20
-5918.224280472899
 30
0.0
 11
3162.0
 21
-5777.3913536289
 31
0.0
  0
LINE
  5
164
330
1F
100
AcDbEntity
  8
1
  6
Continuous
 62
     7
100
AcDbLine
 10
3162.0
 20
-5777.3913536289
 30
0.0
 11
1962.0000003536
 21
-5777.3913536289
 31
0.0
  0
LINE
  5
165
330
1F
100
AcDbEntity
  8
0
  6
Continuous
 62
     7
100
AcDbLine
 10
2037.94535223882
 20
-5675.920779408099
 30
0.0
 11
2214.00006121196
 21
-5675.920779408099
 31
0.0
  0
LINE
  5
166
330
1F
100
AcDbEntity
  8
1
  6
Continuous
 62
     7
100
AcDbLine
 10
1962.0
 20
-5777.3913536289
 30
0.0
 11
1962.0
 21
-5918.224280472899
 31
0.0
  0
LINE
  5
167
330
1F
100
AcDbEntity
  8
1
  6
Continuous
 62
     7
100
AcDbLine
 10
1962.0
 20
-5691.5584556345
 30
0.0
 11
1962.0
 21
-5772.0576777883
 31
0.0
  0
LINE
  5
168
330
1F
100
AcDbEntity
  8
1
  6
Continuous
 62
     7
100
AcDbLine
 10
6162.0
 20
-5918.224280472899
 30
0.0
 11
6162.0
 21
-5777.3913536289
 31
0.0
  0
LINE
  5
169
330
1F
100
AcDbEntity
  8
1
  6
Continuous
 62
     7
100
AcDbLine
 10
6162.0
 20
-5772.0576777883
 30
0.0
 11
6162.0
 21
-5691.5584556345
 31
0.0
  0
LINE
  5
16A
330
1F
100
AcDbEntity
  8
0
  6
Continuous
 62
     7
100
AcDbLine
 10
5574.000000000003
 20
-5675.92077940803
 30
0.0
 11
6087.371541766068
 21
-5675.920779408161
 31
0.0
  0
LINE
  5
16B
330
1F
100
AcDbEntity
  8
1
  6
Continuous
 62
     7
100
AcDbLine
 10
4962.0
 20
-5691.515989211701
 30
0.0
 11
4962.0
 21
-5772.0576777883
 31
0.0
  0
LINE
  5
16C
330
1F
100
AcDbEntity
  8
1
  6
Continuous
 62
     7
100
AcDbLine
 10
4962.0
 20
-5777.3913536289
 30
0.0
 11
4962.0
 21
-5918.224280472899
 31
0.0
  0
LINE
  5
16D
330
1F
100
AcDbEntity
  8
1
  6
Continuous
 62
     7
100
AcDbLine
 10
6162.0
 20
-5777.3913536289
 30
0.0
 11
4962.0000003536
 21
-5777.3913536289
 31
0.0
  0
LINE
  5
16E
330
1F
100
AcDbEntity
  8
1
  6
Continuous
 62
     7
100
AcDbLine
 10
2226.00006138876
 20
-5687.920779408099
 30
0.0
 11
2226.00006138876
 21
-5690.920779408099
 31
0.0
  0
LINE
  5
16F
330
1F
100
AcDbEntity
  8
1
  6
Continuous
 62
     7
100
AcDbLine
 10
2897.99993878804
 20
-5687.920779408099
 30
0.0
 11
2897.99993878804
 21
-5690.920779408099
 31
0.0
  0
LINE
  5
170
330
1F
100
AcDbEntity
  8
1
  6
Continuous
 62
     7
100
AcDbLine
 10
5562.0
 20
-5687.240636758899
 30
0.0
 11
5562.0
 21
-5691.515989211701
 31
0.0
  0
LINE
  5
171
330
1F
100
AcDbEntity
  8
0
  6
Continuous
 62
     7
100
AcDbLine
 10
5037.94535259243
 20
-5675.920779408099
 30
0.0
 11
5549.999999999997
 21
-5675.920779407968
 31
0.0
  0
LINE
  5
176
330
1F
100
AcDbEntity
  8
1
  6
Continuous
 62
     1
100
AcDbLine
 10
1962.0
 20
-13110.3155003945
 30
0.0
 11
2226.00006103516
 21
-13110.3155003945
 31
0.0
  0
LINE
  5
177
330
1F
100
AcDbEntity
  8
1
  6
Continuous
 62
     1
100
AcDbLine
 10
2657.99993843444
 20
-13110.3155003945
 30
0.0
 11
2921.9999996464
 21
-13110.3155003945
 31
0.0
  0
LINE
  5
178
330
1F
100
AcDbEntity
  8
1
  6
Continuous
 62
     1
100
AcDbLine
 10
2226.00006103516
 20
-13326.3155003945
 30
0.0
 11
2657.99993843444
 21
-13326.3155003945
 31
0.0
  0
LINE
  5
179
330
1F
100
AcDbEntity
  8
1
  6
Continuous
 62
     1
100
AcDbLine
 10
2226.00006103516
 20
-12894.3155003945
 30
0.0
 11
2657.99993843444
 21
-12894.3155003945
 31
0.0
  0
LINE
  5
17A
330
1F
100
AcDbEntity
  8
0
  6
Continuous
 62
     1
100
AcDbLine
 10
2657.99993843444
 20
-13590.0124388512
 30
0.0
 11
2657.99993843444
 21
-12630.3155003945
 31
0.0
  0
LINE
  5
17B
330
1F
100
AcDbEntity
  8
0
  6
Continuous
 62
     7
100
AcDbLine
 10
2921.9999996464
 20
-13590.3155003945
 30
0.0
 11
2921.9999996464
 21
-12630.3155003945
 31
0.0
  0
LINE
  5
17C
330
1F
100
AcDbEntity
  8
0
  6
Continuous
 62
     7
100
AcDbLine
 10
1962.0
 20
-12630.3155003945
 30
0.0
 11
2921.9999996464
 21
-12630.3155003945
 31
0.0
  0
LINE
  5
17D
330
1F
100
AcDbEntity
  8
0
  6
Continuous
 62
     7
100
AcDbLine
 10
1962.0
 20
-13590.3155003945
 30
0.0
 11
2921.9999996464
 21
-13590.3155003945
 31
0.0
  0
LINE
  5
17E
330
1F
100
AcDbEntity
  8
0
  6
Continuous
 62
     1
100
AcDbLine
 10
2226.00006103516
 20
-13590.0124388512
 30
0.0
 11
2226.00006103516
 21
-12630.3155003945
 31
0.0
  0
LINE
  5
17F
330
1F
100
AcDbEntity
  8
0
  6
Continuous
 62
     7
100
AcDbLine
 10
1962.0
 20
-13590.3155003945
 30
0.0
 11
1962.0
 21
-12630.3155003945
 31
0.0
  0
LINE
  5
184
330
1F
100
AcDbEntity
  8
0
  6
Continuous
 62
     7
100
AcDbLine
 10
5037.94535259243
 20
-11675.9207794081
 30
0.0
 11
5430.0000003536
 21
-11675.920779408
 31
0.0
  0
LINE
  5
185
330
1F
100
AcDbEntity
  8
1
  6
Continuous
 62
     7
100
AcDbLine
 10
5442.0000003536
 20
-11687.2406367589
 30
0.0
 11
5442.0000003536
 21
-11691.5159892117
 31
0.0
  0
LINE
  5
186
330
1F
100
AcDbEntity
  8
1
  6
Continuous
 62
     7
100
AcDbLine
 10
2657.99993878804
 20
-11687.9207794081
 30
0.0
 11
2657.99993878804
 21
-11690.9207794081
 31
0.0
  0
LINE
  5
187
330
1F
100
AcDbEntity
  8
1
  6
Continuous
 62
     7
100
AcDbLine
 10
2226.00006138876
 20
-11687.9207794081
 30
0.0
 11
2226.00006138876
 21
-11690.9207794081
 31
0.0
  0
LINE
  5
188
330
1F
100
AcDbEntity
  8
1
  6
Continuous
 62
     7
100
AcDbLine
 10
5922.0000003536
 20
-11777.3913536289
 30
0.0
 11
4962.0000003536
 21
-11777.3913536289
 31
0.0
  0
LINE
  5
189
330
1F
100
AcDbEntity
  8
1
  6
Continuous
 62
     7
100
AcDbLine
 10
4962.0
 20
-11777.3913536289
 30
0.0
 11
4962.0
 21
-11918.2242804729
 31
0.0
  0
LINE
  5
18A
330
1F
100
AcDbEntity
  8
1
  6
Continuous
 62
     7
100
AcDbLine
 10
4962.0
 20
-11691.5159892117
 30
0.0
 11
4962.0
 21
-11772.0576777883
 31
0.0
  0
LINE
  5
18B
330
1F
100
AcDbEntity
  8
0
  6
Continuous
 62
     7
100
AcDbLine
 10
5454.0000003536
 20
-11675.920779408
 30
0.0
 11
5846.05464811477
 21
-11675.9207794081
 31
0.0
  0
LINE
  5
18C
330
1F
100
AcDbEntity
  8
1
  6
Continuous
 62
     7
100
AcDbLine
 10
5922.0000003536
 20
-11772.0576777883
 30
0.0
 11
5922.0000003536
 21
-11691.5584556345
 31
0.0
  0
LINE
  5
18D
330
1F
100
AcDbEntity
  8
1
  6
Continuous
 62
     7
100
AcDbLine
 10
5922.0000003536
 20
-11918.2242804729
 30
0.0
 11
5922.0000003536
 21
-11777.3913536289
 31
0.0
  0
LINE
  5
18E
330
1F
100
AcDbEntity
  8
1
  6
Continuous
 62
     7
100
AcDbLine
 10
1962.0
 20
-11691.5584556345
 30
0.0
 11
1962.0
 21
-11772.0576777883
 31
0.0
  0
LINE
  5
18F
330
1F
100
AcDbEntity
  8
1
  6
Continuous
 62
     7
100
AcDbLine
 10
1962.0
 20
-11777.3913536289
 30
0.0
 11
1962.0
 21
-11918.2242804729
 31
0.0
  0
LINE
  5
190
330
1F
100
AcDbEntity
  8
0
  6
Continuous
 62
     7
100
AcDbLine
 10
2037.94535223882
 20
-11675.9207794081
 30
0.0
 11
2214.00006121196
 21
-11675.9207794081
 31
0.0
  0
LINE
  5
191
330
1F
100
AcDbEntity
  8
1
  6
Continuous
 62
     7
100
AcDbLine
 10
2922.0
 20
-11777.3913536289
 30
0.0
 11
1962.0000003536
 21
-11777.3913536289
 31
0.0
  0
LINE
  5
192
330
1F
100
AcDbEntity
  8
1
  6
Continuous
 62
     7
100
AcDbLine
 10
2922.0
 20
-11918.2242804729
 30
0.0
 11
2922.0
 21
-11777.3913536289
 31
0.0
  0
LINE
  5
193
330
1F
100
AcDbEntity
  8
1
  6
Continuous
 62
     7
100
AcDbLine
 10
2922.0
 20
-11772.0576777883
 30
0.0
 11
2922.0
 21
-11691.5584556345
 31
0.0
  0
LINE
  5
194
330
1F
100
AcDbEntity
  8
1
  6
Continuous
 62
     1
100
AcDbLine
 10
4962.0
 20
-11691.5159892117
 30
0.0
 11
5922.0000003536
 21
-11691.5159892117
 31
0.0
  0
LINE
  5
195
330
1F
100
AcDbEntity
  8
1
  6
Continuous
 62
     1
100
AcDbLine
 10
1962.0000003536
 20
-11691.5584556345
 30
0.0
 11
2922.0
 21
-11691.5584556345
 31
0.0
  0
LINE
  5
196
330
1F
100
AcDbEntity
  8
0
  6
Continuous
 62
     7
100
AcDbLine
 10
5922.0000003536
 20
-11918.2242809685
 30
0.0
 11
4962.0000003536
 21
-11918.2242809685
 31
0.0
  0
LINE
  5
197
330
1F
100
AcDbEntity
  8
0
  6
Continuous
 62
     7
100
AcDbLine
 10
2238.00006138878
 20
-11675.9207794081
 30
0.0
 11
2645.99993878806
 21
-11675.9207794081
 31
0.0
  0
LINE
  5
198
330
1F
100
AcDbEntity
  8
0
  6
Continuous
 62
     7
100
AcDbLine
 10
1962.0000003536
 20
-11918.2242804729
 30
0.0
 11
2922.0
 21
-11918.2242804729
 31
0.0
  0
LINE
  5
199
330
1F
100
AcDbEntity
  8
0
  6
Continuous
 62
     7
100
AcDbLine
 10
2669.99993878804
 20
-11675.9207794081
 30
0.0
 11
2846.05464776117
 21
-11675.9207794081
 31
0.0
  0
LINE
  5
19A
330
1F
100
AcDbEntity
  8
1
  6
Continuous
 62
     1
100
AcDbLine
 10
-1038.0000003536
 20
-11691.5159892117
 30
0.0
 11
-78.0
 21
-11691.5159892117
 31
0.0
  0
LINE
  5
19B
330
1F
100
AcDbEntity
  8
1
  6
Continuous
 62
     7
100
AcDbLine
 10
-78.0
 20
-11772.0576777883
 30
0.0
 11
-78.0
 21
-11691.5584556345
 31
0.0
  0
LINE
  5
19C
330
1F
100
AcDbEntity
  8
0
  6
Continuous
 62
     7
100
AcDbLine
 10
-545.999999999999
 20
-11675.920779408
 30
0.0
 11
-153.945352238826
 21
-11675.9207794081
 31
0.0
  0
LINE
  5
19D
330
1F
100
AcDbEntity
  8
1
  6
Continuous
 62
     7
100
AcDbLine
 10
-1038.0000003536
 20
-11691.5159892117
 30
0.0
 11
-1038.0000003536
 21
-11772.0576777883
 31
0.0
  0
LINE
  5
19E
330
1F
100
AcDbEntity
  8
1
  6
Continuous
 62
     7
100
AcDbLine
 10
-78.0
 20
-11777.3913536289
 30
0.0
 11
-1038.0
 21
-11777.3913536289
 31
0.0
  0
LINE
  5
19F
330
1F
100
AcDbEntity
  8
1
  6
Continuous
 62
     7
100
AcDbLine
 10
-558.0
 20
-11687.2406367589
 30
0.0
 11
-558.0
 21
-11691.5159892117
 31
0.0
  0
LINE
  5
1A0
330
1F
100
AcDbEntity
  8
0
  6
Continuous
 62
     7
100
AcDbLine
 10
-962.054647761174
 20
-11675.9207794081
 30
0.0
 11
-570.000000000001
 21
-11675.920779408
 31
0.0
  0
LINE
  5
1A1
330
1F
100
AcDbEntity
  8
VOLLE_LIJNEN
  6
Continuous
 62
     4
100
AcDbLine
 10
5110.9558721823
 20
-11945.6383804264
 30
0.0
 11
5110.9558721823
 21
-11918.2242809685
 31
0.0
  0
LINE
  5
1A2
330
1F
100
AcDbEntity
  8
VOLLE_LIJNEN
  6
Continuous
 62
     4
100
AcDbLine
 10
5052.5856861237
 20
-11945.6383804264
 30
0.0
 11
5052.5856861237
 21
-11918.2242809685
 31
0.0
  0
LINE
  5
1A3
330
1F
100
AcDbEntity
  8
VOLLE_LIJNEN
  6
Continuous
 62
     4
100
AcDbLine
 10
5825.4406832807
 20
-11918.2242809685
 30
0.0
 11
5825.4406832807
 21
-11945.6383804264
 31
0.0
  0
LINE
  5
1A4
330
1F
100
AcDbEntity
  8
VOLLE_LIJNEN
  6
Continuous
 62
     4
100
AcDbLine
 10
5767.0533043469
 20
-11945.6383804264
 30
0.0
 11
5767.0533043469
 21
-11918.2242809685
 31
0.0
  0
LINE
  5
1A5
330
1F
100
AcDbEntity
  8
VOLLE_LIJNEN
  6
Continuous
 62
     4
100
AcDbLine
 10
2837.973424041
 20
-11945.6383799308
 30
0.0
 11
2837.973424041
 21
-11918.2242804729
 31
0.0
  0
LINE
  5
1A6
330
1F
100
AcDbEntity
  8
VOLLE_LIJNEN
  6
Continuous
 62
     4
100
AcDbLine
 10
2779.6204808368
 20
-11945.6383799308
 30
0.0
 11
2779.6204808368
 21
-11918.2242804729
 31
0.0
  0
LINE
  5
1A7
330
1F
100
AcDbEntity
  8
VOLLE_LIJNEN
  6
Continuous
 62
     4
100
AcDbLine
 10
2046.009326261
 20
-11945.6383799308
 30
0.0
 11
2046.009326261
 21
-11918.2242804729
 31
0.0
  0
LINE
  5
1A8
330
1F
100
AcDbEntity
  8
VOLLE_LIJNEN
  6
Continuous
 62
     4
100
AcDbLine
 10
2104.3794873301
 20
-11918.2242804729
 30
0.0
 11
2104.3794873301
 21
-11945.6383799308
 31
0.0
  0
LINE
  5
1A9
330
1F
100
AcDbEntity
  8
VOLLE_LIJNEN
  6
Continuous
 62
     4
100
AcDbLine
 10
2821.0822488413
 20
-11989.390198925
 30
0.0
 11
2821.0822488413
 21
-11954.4111444467
 31
0.0
  0
LINE
  5
1AA
330
1F
100
AcDbEntity
  8
VOLLE_LIJNEN
  6
Continuous
 62
     4
100
AcDbLine
 10
2808.8055613713
 20
-11948.3244418113
 30
0.0
 11
2872.0829638513
 21
-11966.119617388
 31
0.0
  0
LINE
  5
1AB
330
1F
100
AcDbEntity
  8
VOLLE_LIJNEN
  6
Continuous
 62
     4
100
AcDbLine
 10
2821.0822488413
 20
-11951.7681147334
 30
0.0
 11
2821.0822488413
 21
-11947.6529450834
 31
0.0
  0
LINE
  5
1AC
330
1F
100
AcDbEntity
  8
VOLLE_LIJNEN
  6
Continuous
 62
     4
100
AcDbLine
 10
2821.0822488413
 20
-11954.4111444467
 30
0.0
 11
2863.71485664321
 21
-11966.4209175275
 31
0.0
  0
LINE
  5
1AD
330
1F
100
AcDbEntity
  8
VOLLE_LIJNEN
  6
Continuous
 62
     4
100
AcDbLine
 10
2863.71485664321
 20
-11966.4209175275
 30
0.0
 11
2866.555879307
 21
-11967.2043678612
 31
0.0
  0
LINE
  5
1AE
330
1F
100
AcDbEntity
  8
VOLLE_LIJNEN
  6
Continuous
 62
     4
100
AcDbLine
 10
2872.0829638513
 20
-11966.119617388
 30
0.0
 11
2887.4417240926
 21
-11970.6222014912
 31
0.0
  0
LINE
  5
1AF
330
1F
100
AcDbEntity
  8
VOLLE_LIJNEN
  6
Continuous
 62
     4
100
AcDbLine
 10
2821.0822488413
 20
-11991.0345424995
 30
0.0
 11
2821.0822488413
 21
-11989.390198925
 31
0.0
  0
LINE
  5
1B0
330
1F
100
AcDbEntity
  8
VOLLE_LIJNEN
  6
Continuous
 62
     4
100
AcDbLine
 10
2940.2503898773
 20
-12048.9398212185
 30
0.0
 11
2936.7034097662
 21
-12062.2323877024
 31
0.0
  0
LINE
  5
1B1
330
1F
100
AcDbEntity
  8
VOLLE_LIJNEN
  6
Continuous
 62
     4
100
AcDbLine
 10
2934.82835047638
 20
-12045.3928411075
 30
0.0
 11
2959.9627171638
 21
-12045.3928411075
 31
0.0
  0
LINE
  5
1B2
330
1F
100
AcDbEntity
  8
VOLLE_LIJNEN
  6
Continuous
 62
     4
100
AcDbLine
 10
2961.9627171638
 20
-12047.3928411075
 30
0.0
 11
2961.9627171638
 21
-12048.6643353814
 31
0.0
  0
LINE
  5
1B3
330
1F
100
AcDbEntity
  8
VOLLE_LIJNEN
  6
Continuous
 62
     4
100
AcDbLine
 10
2958.3640834583
 20
-12048.9398212185
 30
0.0
 11
2940.2503898773
 21
-12048.9398212185
 31
0.0
  0
LINE
  5
1B4
330
1F
100
AcDbEntity
  8
VOLLE_LIJNEN
  6
Continuous
 62
     4
100
AcDbLine
 10
2927.99639718052
 20
-12059.3052757145
 30
0.0
 11
2923.9962756759
 21
-12059.3052757145
 31
0.0
  0
LINE
  5
1B5
330
1F
100
AcDbEntity
  8
VOLLE_LIJNEN
  6
Continuous
 62
     4
100
AcDbLine
 10
2921.8784033344
 20
-12073.6395355146
 30
0.0
 11
2913.0798495057
 21
-12073.6395355146
 31
0.0
  0
LINE
  5
1B6
330
1F
100
AcDbEntity
  8
VOLLE_LIJNEN
  6
Continuous
 62
     4
100
AcDbLine
 10
2929.92707703209
 20
-12057.8272673914
 30
0.0
 11
2932.3299471544
 21
-12048.9398212185
 31
0.0
  0
LINE
  5
1B7
330
1F
100
AcDbEntity
  8
VOLLE_LIJNEN
  6
Continuous
 62
     4
100
AcDbLine
 10
2932.3299471544
 20
-12048.9398212185
 30
0.0
 11
2932.89964009741
 21
-12046.863618778
 31
0.0
  0
LINE
  5
1B8
330
1F
100
AcDbEntity
  8
VOLLE_LIJNEN
  6
Continuous
 62
     4
100
AcDbLine
 10
2796.5288739014
 20
-11947.6529450834
 30
0.0
 11
2796.5288739014
 21
-12039.8915958552
 31
0.0
  0
LINE
  5
1B9
330
1F
100
AcDbEntity
  8
VOLLE_LIJNEN
  6
Continuous
 62
     4
100
AcDbLine
 10
2796.5288739014
 20
-12039.8915958552
 30
0.0
 11
2807.6175037093
 21
-12039.8915958552
 31
0.0
  0
LINE
  5
1BA
330
1F
100
AcDbEntity
  8
1
  6
Continuous
 62
     4
100
AcDbLine
 10
2779.6204808368
 20
-11945.6383799308
 30
0.0
 11
2837.9906419059
 21
-11945.6383799308
 31
0.0
  0
LINE
  5
1BB
330
1F
100
AcDbEntity
  8
1
  6
Continuous
 62
     4
100
AcDbLine
 10
2046.009326261
 20
-11945.6383799308
 30
0.0
 11
2104.3794873301
 21
-11945.6383799308
 31
0.0
  0
LINE
  5
1BC
330
1F
100
AcDbEntity
  8
VOLLE_LIJNEN
  6
Continuous
 62
     4
100
AcDbLine
 10
2062.9177193256
 20
-12039.8915958552
 30
0.0
 11
2074.0063491335
 21
-12039.8915958552
 31
0.0
  0
LINE
  5
1BD
330
1F
100
AcDbEntity
  8
VOLLE_LIJNEN
  6
Continuous
 62
     4
100
AcDbLine
 10
2046.009326261
 20
-11945.6383799308
 30
0.0
 11
2046.009326261
 21
-11918.2242804729
 31
0.0
  0
LINE
  5
1BE
330
1F
100
AcDbEntity
  8
VOLLE_LIJNEN
  6
Continuous
 62
     4
100
AcDbLine
 10
2062.9177193256
 20
-11947.6529450834
 30
0.0
 11
2062.9177193256
 21
-12039.8915958552
 31
0.0
  0
LINE
  5
1BF
330
1F
100
AcDbEntity
  8
VOLLE_LIJNEN
  6
Continuous
 62
     4
100
AcDbLine
 10
2198.7187925786
 20
-12048.9398212185
 30
0.0
 11
2199.2884855216
 21
-12046.863618778
 31
0.0
  0
LINE
  5
1C0
330
1F
100
AcDbEntity
  8
VOLLE_LIJNEN
  6
Continuous
 62
     4
100
AcDbLine
 10
2196.31592245628
 20
-12057.8272673914
 30
0.0
 11
2198.7187925786
 21
-12048.9398212185
 31
0.0
  0
LINE
  5
1C1
330
1F
100
AcDbEntity
  8
VOLLE_LIJNEN
  6
Continuous
 62
     4
100
AcDbLine
 10
2188.2672487586
 20
-12073.6395355146
 30
0.0
 11
2179.4686949299
 21
-12073.6395355146
 31
0.0
  0
LINE
  5
1C2
330
1F
100
AcDbEntity
  8
VOLLE_LIJNEN
  6
Continuous
 62
     4
100
AcDbLine
 10
2194.38524260472
 20
-12059.3052757145
 30
0.0
 11
2190.3851211001
 21
-12059.3052757145
 31
0.0
  0
LINE
  5
1C3
330
1F
100
AcDbEntity
  8
VOLLE_LIJNEN
  6
Continuous
 62
     4
100
AcDbLine
 10
2224.75292888249
 20
-12048.9398212185
 30
0.0
 11
2206.6392353015
 21
-12048.9398212185
 31
0.0
  0
LINE
  5
1C4
330
1F
100
AcDbEntity
  8
VOLLE_LIJNEN
  6
Continuous
 62
     4
100
AcDbLine
 10
2228.351562588
 20
-12047.3928411075
 30
0.0
 11
2228.351562588
 21
-12048.6643353814
 31
0.0
  0
LINE
  5
1C5
330
1F
100
AcDbEntity
  8
VOLLE_LIJNEN
  6
Continuous
 62
     4
100
AcDbLine
 10
2201.21719590059
 20
-12045.3928411075
 30
0.0
 11
2226.351562588
 21
-12045.3928411075
 31
0.0
  0
LINE
  5
1C6
330
1F
100
AcDbEntity
  8
VOLLE_LIJNEN
  6
Continuous
 62
     4
100
AcDbLine
 10
2206.6392353015
 20
-12048.9398212185
 30
0.0
 11
2203.0922551904
 21
-12062.2323877024
 31
0.0
  0
LINE
  5
1C7
330
1F
100
AcDbEntity
  8
VOLLE_LIJNEN
  6
Continuous
 62
     4
100
AcDbLine
 10
2087.4710942655
 20
-11991.0345424995
 30
0.0
 11
2087.4710942655
 21
-11989.390198925
 31
0.0
  0
LINE
  5
1C8
330
1F
100
AcDbEntity
  8
VOLLE_LIJNEN
  6
Continuous
 62
     4
100
AcDbLine
 10
2138.4718092755
 20
-11966.119617388
 30
0.0
 11
2153.8305695168
 21
-11970.6222014912
 31
0.0
  0
LINE
  5
1C9
330
1F
100
AcDbEntity
  8
VOLLE_LIJNEN
  6
Continuous
 62
     4
100
AcDbLine
 10
2130.10370206741
 20
-11966.4209175275
 30
0.0
 11
2132.9447247312
 21
-11967.2043678612
 31
0.0
  0
LINE
  5
1CA
330
1F
100
AcDbEntity
  8
VOLLE_LIJNEN
  6
Continuous
 62
     4
100
AcDbLine
 10
2087.4710942655
 20
-11954.4111444467
 30
0.0
 11
2130.10370206741
 21
-11966.4209175275
 31
0.0
  0
LINE
  5
1CB
330
1F
100
AcDbEntity
  8
VOLLE_LIJNEN
  6
Continuous
 62
     4
100
AcDbLine
 10
2087.4710942655
 20
-11951.7681147334
 30
0.0
 11
2087.4710942655
 21
-11947.6529450834
 31
0.0
  0
LINE
  5
1CC
330
1F
100
AcDbEntity
  8
VOLLE_LIJNEN
  6
Continuous
 62
     4
100
AcDbLine
 10
2075.1944067955
 20
-11948.3244418113
 30
0.0
 11
2138.4718092755
 21
-11966.119617388
 31
0.0
  0
LINE
  5
1CD
330
1F
100
AcDbEntity
  8
VOLLE_LIJNEN
  6
Continuous
 62
     4
100
AcDbLine
 10
2087.4710942655
 20
-11989.390198925
 30
0.0
 11
2087.4710942655
 21
-11954.4111444467
 31
0.0
  0
LINE
  5
1CE
330
1F
100
AcDbEntity
  8
VOLLE_LIJNEN
  6
Continuous
 62
     4
100
AcDbLine
 10
2104.3794873301
 20
-11918.2242804729
 30
0.0
 11
2104.3794873301
 21
-11945.6383799308
 31
0.0
  0
LINE
  5
1CF
330
1F
100
AcDbEntity
  8
VOLLE_LIJNEN
  6
Continuous
 62
     4
100
AcDbLine
 10
2837.973424041
 20
-11945.6383799308
 30
0.0
 11
2837.973424041
 21
-11918.2242804729
 31
0.0
  0
LINE
  5
1D0
330
1F
100
AcDbEntity
  8
VOLLE_LIJNEN
  6
Continuous
 62
     4
100
AcDbLine
 10
2779.6204808368
 20
-11945.6383799308
 30
0.0
 11
2779.6204808368
 21
-11918.2242804729
 31
0.0
  0
LINE
  5
1D1
330
1F
100
AcDbEntity
  8
VOLLE_LIJNEN
  6
Continuous
 62
     4
100
AcDbLine
 10
5767.0704972221
 20
-11945.6383804264
 30
0.0
 11
5767.0704972221
 21
-11918.2242809685
 31
0.0
  0
LINE
  5
1D2
330
1F
100
AcDbEntity
  8
VOLLE_LIJNEN
  6
Continuous
 62
     4
100
AcDbLine
 10
5814.7454116513
 20
-12045.3928416031
 30
0.0
 11
5777.80020458111
 21
-12045.3928416031
 31
0.0
  0
LINE
  5
1D3
330
1F
100
AcDbEntity
  8
VOLLE_LIJNEN
  6
Continuous
 62
     4
100
AcDbLine
 10
5775.80020458111
 20
-12050.4808830894
 30
0.0
 11
5816.7454116513
 21
-12050.4808830894
 31
0.0
  0
LINE
  5
1D4
330
1F
100
AcDbEntity
  8
VOLLE_LIJNEN
  6
Continuous
 62
     4
100
AcDbLine
 10
5775.80020458111
 20
-12047.3928416031
 30
0.0
 11
5775.80020458111
 21
-12050.4808830894
 31
0.0
  0
LINE
  5
1D5
330
1F
100
AcDbEntity
  8
VOLLE_LIJNEN
  6
Continuous
 62
     4
100
AcDbLine
 10
5816.7454116513
 20
-12050.4808830894
 30
0.0
 11
5816.7454116513
 21
-12047.3928416031
 31
0.0
  0
LINE
  5
1D6
330
1F
100
AcDbEntity
  8
VOLLE_LIJNEN
  6
Continuous
 62
     4
100
AcDbLine
 10
5808.5322652266
 20
-11945.6383804264
 30
0.0
 11
5808.5322652266
 21
-11968.1427544841
 31
0.0
  0
LINE
  5
1D7
330
1F
100
AcDbEntity
  8
VOLLE_LIJNEN
  6
Continuous
 62
     4
100
AcDbLine
 10
5783.9444795466
 20
-11968.1427544841
 30
0.0
 11
5783.9444795466
 21
-11945.6383804264
 31
0.0
  0
LINE
  5
1D8
330
1F
100
AcDbEntity
  8
VOLLE_LIJNEN
  6
Continuous
 62
     4
100
AcDbLine
 10
5785.012012155
 20
-11968.1427544841
 30
0.0
 11
5768.05194050631
 21
-11968.1427544841
 31
0.0
  0
LINE
  5
1D9
330
1F
100
AcDbEntity
  8
VOLLE_LIJNEN
  6
Continuous
 62
     4
100
AcDbLine
 10
5825.4406832807
 20
-11945.6383804264
 30
0.0
 11
5825.4406832807
 21
-11918.2242809685
 31
0.0
  0
LINE
  5
1DA
330
1F
100
AcDbEntity
  8
VOLLE_LIJNEN
  6
Continuous
 62
     4
100
AcDbLine
 10
5767.0704972221
 20
-11945.6383804264
 30
0.0
 11
5825.4406832807
 21
-11945.6383804264
 31
0.0
  0
LINE
  5
1DB
330
1F
100
AcDbEntity
  8
VOLLE_LIJNEN
  6
Continuous
 62
     4
100
AcDbLine
 10
5807.5336040775
 20
-11968.1427544841
 30
0.0
 11
5824.40758640201
 21
-11968.1427544841
 31
0.0
  0
LINE
  5
1DC
330
1F
100
AcDbEntity
  8
1
  6
Continuous
 62
     4
100
AcDbLine
 10
5807.5336040775
 20
-11968.1427544841
 30
0.0
 11
5807.5336040775
 21
-12091.0817328634
 31
0.0
  0
LINE
  5
1DD
330
1F
100
AcDbEntity
  8
1
  6
Continuous
 62
     4
100
AcDbLine
 10
5824.40758640201
 20
-12091.0817328634
 30
0.0
 11
5824.40758640201
 21
-11968.1427544841
 31
0.0
  0
LINE
  5
1DE
330
1F
100
AcDbEntity
  8
1
  6
Continuous
 62
     4
100
AcDbLine
 10
5785.012012155
 20
-11968.1427544841
 30
0.0
 11
5785.012012155
 21
-12091.0817328634
 31
0.0
  0
LINE
  5
1DF
330
1F
100
AcDbEntity
  8
1
  6
Continuous
 62
     4
100
AcDbLine
 10
5768.05194050631
 20
-12091.0817328634
 30
0.0
 11
5768.05194050631
 21
-11968.1427544841
 31
0.0
  0
LINE
  5
1E0
330
1F
100
AcDbEntity
  8
VOLLE_LIJNEN
  6
Continuous
 62
     4
100
AcDbLine
 10
5824.40758640201
 20
-12091.0817328634
 30
0.0
 11
5807.5336040775
 21
-12091.0817328634
 31
0.0
  0
LINE
  5
1E1
330
1F
100
AcDbEntity
  8
VOLLE_LIJNEN
  6
Continuous
 62
     4
100
AcDbLine
 10
5768.05194050631
 20
-12091.0817328634
 30
0.0
 11
5785.012012155
 21
-12091.0817328634
 31
0.0
  0
LINE
  5
1E2
330
1F
100
AcDbEntity
  8
VOLLE_LIJNEN
  6
Continuous
 62
     4
100
AcDbLine
 10
5053.56712940791
 20
-12091.0817328634
 30
0.0
 11
5070.5272010566
 21
-12091.0817328634
 31
0.0
  0
LINE
  5
1E3
330
1F
100
AcDbEntity
  8
VOLLE_LIJNEN
  6
Continuous
 62
     4
100
AcDbLine
 10
5109.92277530361
 20
-12091.0817328634
 30
0.0
 11
5093.0487929791
 21
-12091.0817328634
 31
0.0
  0
LINE
  5
1E4
330
1F
100
AcDbEntity
  8
1
  6
Continuous
 62
     4
100
AcDbLine
 10
5053.56712940791
 20
-12091.0817328634
 30
0.0
 11
5053.56712940791
 21
-11968.1427544841
 31
0.0
  0
LINE
  5
1E5
330
1F
100
AcDbEntity
  8
1
  6
Continuous
 62
     4
100
AcDbLine
 10
5070.5272010566
 20
-11968.1427544841
 30
0.0
 11
5070.5272010566
 21
-12091.0817328634
 31
0.0
  0
LINE
  5
1E6
330
1F
100
AcDbEntity
  8
1
  6
Continuous
 62
     4
100
AcDbLine
 10
5109.92277530361
 20
-12091.0817328634
 30
0.0
 11
5109.92277530361
 21
-11968.1427544841
 31
0.0
  0
LINE
  5
1E7
330
1F
100
AcDbEntity
  8
1
  6
Continuous
 62
     4
100
AcDbLine
 10
5093.0487929791
 20
-11968.1427544841
 30
0.0
 11
5093.0487929791
 21
-12091.0817328634
 31
0.0
  0
LINE
  5
1E8
330
1F
100
AcDbEntity
  8
VOLLE_LIJNEN
  6
Continuous
 62
     4
100
AcDbLine
 10
5093.0487929791
 20
-11968.1427544841
 30
0.0
 11
5109.92277530361
 21
-11968.1427544841
 31
0.0
  0
LINE
  5
1E9
330
1F
100
AcDbEntity
  8
VOLLE_LIJNEN
  6
Continuous
 62
     4
100
AcDbLine
 10
5052.5856861237
 20
-11945.6383804264
 30
0.0
 11
5110.9558721823
 21
-11945.6383804264
 31
0.0
  0
LINE
  5
1EA
330
1F
100
AcDbEntity
  8
VOLLE_LIJNEN
  6
Continuous
 62
     4
100
AcDbLine
 10
5110.9558721823
 20
-11945.6383804264
 30
0.0
 11
5110.9558721823
 21
-11918.2242809685
 31
0.0
  0
LINE
  5
1EB
330
1F
100
AcDbEntity
  8
VOLLE_LIJNEN
  6
Continuous
 62
     4
100
AcDbLine
 10
5070.5272010566
 20
-11968.1427544841
 30
0.0
 11
5053.56712940791
 21
-11968.1427544841
 31
0.0
  0
LINE
  5
1EC
330
1F
100
AcDbEntity
  8
VOLLE_LIJNEN
  6
Continuous
 62
     4
100
AcDbLine
 10
5069.45966844819
 20
-11968.1427544841
 30
0.0
 11
5069.45966844819
 21
-11945.6383804264
 31
0.0
  0
LINE
  5
1ED
330
1F
100
AcDbEntity
  8
VOLLE_LIJNEN
  6
Continuous
 62
     4
100
AcDbLine
 10
5094.0474541282
 20
-11945.6383804264
 30
0.0
 11
5094.0474541282
 21
-11968.1427544841
 31
0.0
  0
LINE
  5
1EE
330
1F
100
AcDbEntity
  8
VOLLE_LIJNEN
  6
Continuous
 62
     4
100
AcDbLine
 10
5102.26060055291
 20
-12050.4808830894
 30
0.0
 11
5102.26060055291
 21
-12047.3928416031
 31
0.0
  0
LINE
  5
1EF
330
1F
100
AcDbEntity
  8
VOLLE_LIJNEN
  6
Continuous
 62
     4
100
AcDbLine
 10
5061.31539348271
 20
-12047.3928416031
 30
0.0
 11
5061.31539348271
 21
-12050.4808830894
 31
0.0
  0
LINE
  5
1F0
330
1F
100
AcDbEntity
  8
VOLLE_LIJNEN
  6
Continuous
 62
     4
100
AcDbLine
 10
5061.31539348271
 20
-12050.4808830894
 30
0.0
 11
5102.26060055291
 21
-12050.4808830894
 31
0.0
  0
LINE
  5
1F1
330
1F
100
AcDbEntity
  8
VOLLE_LIJNEN
  6
Continuous
 62
     4
100
AcDbLine
 10
5100.26060055291
 20
-12045.3928416031
 30
0.0
 11
5063.31539348271
 21
-12045.3928416031
 31
0.0
  0
LINE
  5
1F2
330
1F
100
AcDbEntity
  8
VOLLE_LIJNEN
  6
Continuous
 62
     4
100
AcDbLine
 10
5052.5856861237
 20
-11945.6383804264
 30
0.0
 11
5052.5856861237
 21
-11918.2242809685
 31
0.0
  0
LINE
  5
1F3
330
1F
100
AcDbEntity
  8
VOLLE_LIJNEN
  6
Continuous
 62
     4
100
AcDbLine
 10
5825.4406832807
 20
-11918.2242809685
 30
0.0
 11
5825.4406832807
 21
-11945.6383804264
 31
0.0
  0
LINE
  5
1F4
330
1F
100
AcDbEntity
  8
VOLLE_LIJNEN
  6
Continuous
 62
     4
100
AcDbLine
 10
5767.0533043469
 20
-11945.6383804264
 30
0.0
 11
5767.0533043469
 21
-11918.2242809685
 31
0.0
  0
ARC
  5
1F5
330
1F
100
AcDbEntity
  8
0
  6
Continuous
 62
     7
100
AcDbCircle
 10
-3242.17202328177
 20
-11864.958504103
 30
0.0
 40
189.0388714266688
100
AcDbArc
 50
89.80043093905513
 51
113.4695415955203
  0
ARC
  5
1F6
330
1F
100
AcDbEntity
  8
0
  6
Continuous
 62
     7
100
AcDbCircle
 10
-2432.745833772131
 20
-11864.958504103
 30
0.0
 40
189.038871426686
100
AcDbArc
 50
66.53045840447932
 51
90.19956906094818
  0
ARC
  5
1F7
330
1F
100
AcDbEntity
  8
0
  6
Continuous
 62
     7
100
AcDbCircle
 10
-3041.45886713817
 20
-11687.9207794081
 30
0.0
 40
12.0
100
AcDbArc
 50
90.0
 51
180.0
  0
ARC
  5
1F8
330
1F
100
AcDbEntity
  8
0
  6
Continuous
 62
     7
100
AcDbCircle
 10
-3065.45886713819
 20
-11687.9207794081
 30
0.0
 40
12.0
100
AcDbArc
 50
0.0
 51
90.0
  0
ARC
  5
1F9
330
1F
100
AcDbEntity
  8
0
  6
Continuous
 62
     7
100
AcDbCircle
 10
-2633.458989738891
 20
-11687.9207794081
 30
0.0
 40
11.99999999997999
100
AcDbArc
 50
0.0
 51
90.0
  0
ARC
  5
1FA
330
1F
100
AcDbEntity
  8
0
  6
Continuous
 62
     7
100
AcDbCircle
 10
-2609.458989738911
 20
-11687.9207794081
 30
0.0
 40
12.0
100
AcDbArc
 50
90.0
 51
180.0
  0
ARC
  5
1FB
330
1F
100
AcDbEntity
  8
1
  6
Continuous
 62
     7
100
AcDbCircle
 10
-2380.44129024922
 20
-11725.412087968
 30
0.0
 40
52.00000000015722
100
AcDbArc
 50
-88.38193676801211
 51
-63.77045355949328
  0
ARC
  5
1FC
330
1F
100
AcDbEntity
  8
1
  6
Continuous
 62
     7
100
AcDbCircle
 10
-3294.47656680468
 20
-11725.412087968
 30
0.0
 40
52.00000000016315
100
AcDbArc
 50
-116.2295464405067
 51
-91.6180632319894
  0
ARC
  5
1FD
330
1F
100
AcDbEntity
  8
1
  6
Continuous
 62
     7
100
AcDbCircle
 10
-3294.47656680468
 20
-14725.412087968
 30
0.0
 40
52.00000000016315
100
AcDbArc
 50
-116.2295464405067
 51
-91.6180632319894
  0
ARC
  5
1FE
330
1F
100
AcDbEntity
  8
1
  6
Continuous
 62
     7
100
AcDbCircle
 10
-2380.44129024922
 20
-14725.412087968
 30
0.0
 40
52.00000000015722
100
AcDbArc
 50
-88.38193676801211
 51
-63.77045355949328
  0
ARC
  5
1FF
330
1F
100
AcDbEntity
  8
0
  6
Continuous
 62
     7
100
AcDbCircle
 10
-2609.458989738911
 20
-14687.9207794081
 30
0.0
 40
12.0
100
AcDbArc
 50
90.0
 51
180.0
  0
ARC
  5
200
330
1F
100
AcDbEntity
  8
0
  6
Continuous
 62
     7
100
AcDbCircle
 10
-2633.458989738891
 20
-14687.9207794081
 30
0.0
 40
11.99999999997999
100
AcDbArc
 50
0.0
 51
90.0
  0
ARC
  5
201
330
1F
100
AcDbEntity
  8
0
  6
Continuous
 62
     7
100
AcDbCircle
 10
-3065.45886713819
 20
-14687.9207794081
 30
0.0
 40
12.0
100
AcDbArc
 50
0.0
 51
90.0
  0
ARC
  5
202
330
1F
100
AcDbEntity
  8
0
  6
Continuous
 62
     7
100
AcDbCircle
 10
-3041.45886713817
 20
-14687.9207794081
 30
0.0
 40
12.0
100
AcDbArc
 50
90.0
 51
180.0
  0
ARC
  5
203
330
1F
100
AcDbEntity
  8
0
  6
Continuous
 62
     7
100
AcDbCircle
 10
-2432.745833772131
 20
-14864.958504103
 30
0.0
 40
189.038871426686
100
AcDbArc
 50
66.53045840447932
 51
90.19956906094818
  0
ARC
  5
204
330
1F
100
AcDbEntity
  8
0
  6
Continuous
 62
     7
100
AcDbCircle
 10
-3242.17202328177
 20
-14864.958504103
 30
0.0
 40
189.0388714266688
100
AcDbArc
 50
89.80043093905513
 51
113.4695415955203
  0
ARC
  5
205
330
1F
100
AcDbEntity
  8
0
  6
Continuous
 62
     7
100
AcDbCircle
 10
-632.7458337721346
 20
-14864.958504103
 30
0.0
 40
189.0388714266873
100
AcDbArc
 50
66.53045840447844
 51
90.19956905379354
  0
ARC
  5
206
330
1F
100
AcDbEntity
  8
0
  6
Continuous
 62
     7
100
AcDbCircle
 10
-962.1720236353685
 20
-14864.958504103
 30
0.0
 40
189.0388714266688
100
AcDbArc
 50
89.80043093905472
 51
113.4695415955155
  0
ARC
  5
207
330
1F
100
AcDbEntity
  8
1
  6
Continuous
 62
     7
100
AcDbCircle
 10
-580.4412902492186
 20
-14725.412087968
 30
0.0
 40
52.00000000015719
100
AcDbArc
 50
-88.38193676801362
 51
-63.77045355949507
  0
ARC
  5
208
330
1F
100
AcDbEntity
  8
1
  6
Continuous
 62
     7
100
AcDbCircle
 10
-1014.476567158281
 20
-14725.412087968
 30
0.0
 40
52.0000000001631
100
AcDbArc
 50
-116.2295464405066
 51
-91.61806323198677
  0
ARC
  5
209
330
1F
100
AcDbEntity
  8
1
  6
Continuous
 62
     4
100
AcDbCircle
 10
2959.9627171638
 20
-9047.392841107499
 30
0.0
 40
2.0
100
AcDbArc
 50
0.0
 51
90.0
  0
ARC
  5
20A
330
1F
100
AcDbEntity
  8
1
  6
Continuous
 62
     4
100
AcDbCircle
 10
2934.82835047638
 20
-9047.392841107499
 30
0.0
 40
2.0
100
AcDbArc
 50
90.0
 51
164.6561505692454
  0
ARC
  5
20B
330
1F
100
AcDbEntity
  8
1
  6
Continuous
 62
     4
100
AcDbCircle
 10
2927.99639718052
 20
-9057.3052757145
 30
0.0
 40
2.0
100
AcDbArc
 50
-90.0
 51
-15.12915987218816
  0
ARC
  5
20C
330
1F
100
AcDbEntity
  8
1
  6
Continuous
 62
     4
100
AcDbCircle
 10
2194.38524260472
 20
-9057.3052757145
 30
0.0
 40
2.0
100
AcDbArc
 50
-90.0
 51
-15.12915987226296
  0
ARC
  5
20D
330
1F
100
AcDbEntity
  8
1
  6
Continuous
 62
     4
100
AcDbCircle
 10
2201.21719590059
 20
-9047.392841107499
 30
0.0
 40
2.0
100
AcDbArc
 50
90.0
 51
164.6561505694005
  0
ARC
  5
20E
330
1F
100
AcDbEntity
  8
1
  6
Continuous
 62
     4
100
AcDbCircle
 10
2226.351562588
 20
-9047.392841107499
 30
0.0
 40
2.0
100
AcDbArc
 50
0.0
 51
90.0
  0
ARC
  5
20F
330
1F
100
AcDbEntity
  8
1
  6
Continuous
 62
     4
100
AcDbCircle
 10
6054.7454112977
 20
-9047.392841603099
 30
0.0
 40
2.0
100
AcDbArc
 50
0.0
 51
90.0
  0
ARC
  5
210
330
1F
100
AcDbEntity
  8
1
  6
Continuous
 62
     4
100
AcDbCircle
 10
6017.80020422751
 20
-9047.392841603099
 30
0.0
 40
2.0
100
AcDbArc
 50
90.0
 51
180.0
  0
ARC
  5
211
330
1F
100
AcDbEntity
  8
1
  6
Continuous
 62
     4
100
AcDbCircle
 10
5063.31539348271
 20
-9047.392841603099
 30
0.0
 40
2.0
100
AcDbArc
 50
90.0
 51
180.0
  0
ARC
  5
212
330
1F
100
AcDbEntity
  8
1
  6
Continuous
 62
     4
100
AcDbCircle
 10
5100.26060055291
 20
-9047.392841603099
 30
0.0
 40
2.0
100
AcDbArc
 50
0.0
 51
90.0
  0
ARC
  5
213
330
1F
100
AcDbEntity
  8
0
  6
Continuous
 62
     7
100
AcDbCircle
 10
5550.0
 20
-8687.920779408099
 30
0.0
 40
11.99999999989996
100
AcDbArc
 50
0.0
 51
90.0
  0
ARC
  5
214
330
1F
100
AcDbEntity
  8
0
  6
Continuous
 62
     7
100
AcDbCircle
 10
5574.0
 20
-8687.920779408099
 30
0.0
 40
12.00000000010004
100
AcDbArc
 50
90.0
 51
180.0
  0
ARC
  5
215
330
1F
100
AcDbEntity
  8
0
  6
Continuous
 62
     7
100
AcDbCircle
 10
5037.28690524518
 20
-8864.958504103001
 30
0.0
 40
189.0388714266688
100
AcDbArc
 50
89.80043093905472
 51
113.4695415955147
  0
ARC
  5
216
330
1F
100
AcDbEntity
  8
0
  6
Continuous
 62
     7
100
AcDbCircle
 10
6086.71309475482
 20
-8864.958504103001
 30
0.0
 40
189.0388714266854
100
AcDbArc
 50
66.5304584044797
 51
90.19956906094804
  0
ARC
  5
217
330
1F
100
AcDbEntity
  8
0
  6
Continuous
 62
     7
100
AcDbCircle
 10
2037.28690524518
 20
-8864.958504103001
 30
0.0
 40
189.0388714266688
100
AcDbArc
 50
89.80043093905486
 51
113.4695415955204
  0
ARC
  5
218
330
1F
100
AcDbEntity
  8
0
  6
Continuous
 62
     7
100
AcDbCircle
 10
2846.71309475482
 20
-8864.958504103001
 30
0.0
 40
189.0388714266856
100
AcDbArc
 50
66.53045840447958
 51
90.19956906094804
  0
ARC
  5
219
330
1F
100
AcDbEntity
  8
0
  6
Continuous
 62
     7
100
AcDbCircle
 10
2238.00006138878
 20
-8687.920779408099
 30
0.0
 40
12.0
100
AcDbArc
 50
90.0
 51
180.0
  0
ARC
  5
21A
330
1F
100
AcDbEntity
  8
0
  6
Continuous
 62
     7
100
AcDbCircle
 10
2214.00006138876
 20
-8687.920779408099
 30
0.0
 40
12.0
100
AcDbArc
 50
0.0
 51
90.0
  0
ARC
  5
21B
330
1F
100
AcDbEntity
  8
0
  6
Continuous
 62
     7
100
AcDbCircle
 10
2645.99993878806
 20
-8687.920779408099
 30
0.0
 40
11.99999999997999
100
AcDbArc
 50
0.0
 51
90.0
  0
ARC
  5
21C
330
1F
100
AcDbEntity
  8
0
  6
Continuous
 62
     7
100
AcDbCircle
 10
2669.99993878804
 20
-8687.920779408099
 30
0.0
 40
12.0
100
AcDbArc
 50
90.0
 51
180.0
  0
ARC
  5
21D
330
1F
100
AcDbEntity
  8
1
  6
Continuous
 62
     4
100
AcDbCircle
 10
2870.24299149234
 20
-9029.6015219739
 30
0.0
 40
63.47717398792457
100
AcDbArc
 50
140.7564002528396
 51
-170.6708033802984
  0
ARC
  5
21E
330
1F
100
AcDbEntity
  8
1
  6
Continuous
 62
     4
100
AcDbCircle
 10
2921.9117047201
 20
-9058.3457716333
 30
0.0
 40
15.29380013749442
100
AcDbArc
 50
-90.12475877997629
 51
-14.72204971117687
  0
ARC
  5
21F
330
1F
100
AcDbEntity
  8
1
  6
Continuous
 62
     4
100
AcDbCircle
 10
2960.15931046893
 20
-9048.6654167693
 30
0.0
 40
1.816077592350535
100
AcDbArc
 50
-171.3094770493227
 51
6.7721564923757
  0
ARC
  5
220
330
1F
100
AcDbEntity
  8
1
  6
Continuous
 62
     4
100
AcDbCircle
 10
2226.54815589314
 20
-9048.6654167693
 30
0.0
 40
1.816077592370314
100
AcDbArc
 50
-171.3094770494181
 51
6.77215649230127
  0
ARC
  5
221
330
1F
100
AcDbEntity
  8
1
  6
Continuous
 62
     4
100
AcDbCircle
 10
2188.3005501443
 20
-9058.3457716333
 30
0.0
 40
15.29380013749444
100
AcDbArc
 50
-90.12475878001547
 51
-14.72204971117687
  0
ARC
  5
222
330
1F
100
AcDbEntity
  8
1
  6
Continuous
 62
     4
100
AcDbCircle
 10
2136.63183691655
 20
-9029.6015219739
 30
0.0
 40
63.47717398793232
100
AcDbArc
 50
140.7564002528454
 51
-170.6708033802998
  0
ARC
  5
223
330
1F
100
AcDbEntity
  8
1
  6
Continuous
 62
     7
100
AcDbCircle
 10
1984.98236172227
 20
-8725.412087968
 30
0.0
 40
52.00000000016315
100
AcDbArc
 50
-116.2295464405067
 51
-91.61806323198789
  0
ARC
  5
224
330
1F
100
AcDbEntity
  8
1
  6
Continuous
 62
     7
100
AcDbCircle
 10
4984.98236172227
 20
-8725.412087968
 30
0.0
 40
52.00000000016315
100
AcDbArc
 50
-116.2295464405067
 51
-91.6180632319884
  0
ARC
  5
225
330
1F
100
AcDbEntity
  8
1
  6
Continuous
 62
     7
100
AcDbCircle
 10
2899.01763827773
 20
-8725.412087968
 30
0.0
 40
52.00000000015722
100
AcDbArc
 50
-88.38193676801211
 51
-63.77045355949328
  0
ARC
  5
226
330
1F
100
AcDbEntity
  8
1
  6
Continuous
 62
     7
100
AcDbCircle
 10
6139.01763792413
 20
-8725.412087968
 30
0.0
 40
52.00000000015724
100
AcDbArc
 50
-88.38193676801161
 51
-63.77045355949328
  0
ARC
  5
227
330
1F
100
AcDbEntity
  8
1
  6
Continuous
 62
     7
100
AcDbCircle
 10
6139.01763792413
 20
-5725.412087968
 30
0.0
 40
52.00000000015633
100
AcDbArc
 50
-88.38193676801159
 51
-63.77045355949284
  0
ARC
  5
228
330
1F
100
AcDbEntity
  8
1
  6
Continuous
 62
     7
100
AcDbCircle
 10
3139.01763827773
 20
-5725.412087968
 30
0.0
 40
52.00000000015631
100
AcDbArc
 50
-88.38193676801208
 51
-63.77045355949284
  0
ARC
  5
229
330
1F
100
AcDbEntity
  8
1
  6
Continuous
 62
     7
100
AcDbCircle
 10
4984.98236172227
 20
-5725.412087968
 30
0.0
 40
52.00000000016234
100
AcDbArc
 50
-116.2295464405072
 51
-91.61806323198843
  0
ARC
  5
22A
330
1F
100
AcDbEntity
  8
1
  6
Continuous
 62
     7
100
AcDbCircle
 10
1984.98236172227
 20
-5725.412087968
 30
0.0
 40
52.00000000016234
100
AcDbArc
 50
-116.2295464405072
 51
-91.61806323198792
  0
ARC
  5
22B
330
1F
100
AcDbEntity
  8
1
  6
Continuous
 62
     4
100
AcDbCircle
 10
2136.63183691655
 20
-6029.6015219739
 30
0.0
 40
63.47717398793232
100
AcDbArc
 50
140.7564002528454
 51
-170.6708033802998
  0
ARC
  5
22C
330
1F
100
AcDbEntity
  8
1
  6
Continuous
 62
     4
100
AcDbCircle
 10
2188.3005501443
 20
-6058.3457716333
 30
0.0
 40
15.29380013749444
100
AcDbArc
 50
-90.12475878001547
 51
-14.72204971117687
  0
ARC
  5
22D
330
1F
100
AcDbEntity
  8
1
  6
Continuous
 62
     4
100
AcDbCircle
 10
2226.54815589314
 20
-6048.6654167693
 30
0.0
 40
1.816077592370314
100
AcDbArc
 50
-171.3094770494181
 51
6.77215649230127
  0
ARC
  5
22E
330
1F
100
AcDbEntity
  8
1
  6
Continuous
 62
     4
100
AcDbCircle
 10
3200.15931046893
 20
-6048.6654167693
 30
0.0
 40
1.816077592350535
100
AcDbArc
 50
-171.3094770493227
 51
6.7721564923757
  0
ARC
  5
22F
330
1F
100
AcDbEntity
  8
1
  6
Continuous
 62
     4
100
AcDbCircle
 10
3161.9117047201
 20
-6058.3457716333
 30
0.0
 40
15.29380013749442
100
AcDbArc
 50
-90.12475877997629
 51
-14.72204971117687
  0
ARC
  5
230
330
1F
100
AcDbEntity
  8
1
  6
Continuous
 62
     4
100
AcDbCircle
 10
3110.24299149234
 20
-6029.6015219739
 30
0.0
 40
63.47717398792457
100
AcDbArc
 50
140.7564002528396
 51
-170.6708033802984
  0
ARC
  5
231
330
1F
100
AcDbEntity
  8
0
  6
Continuous
 62
     7
100
AcDbCircle
 10
2909.99993878804
 20
-5687.920779408099
 30
0.0
 40
12.0
100
AcDbArc
 50
90.0
 51
180.0
  0
ARC
  5
232
330
1F
100
AcDbEntity
  8
0
  6
Continuous
 62
     7
100
AcDbCircle
 10
2885.99993878806
 20
-5687.920779408099
 30
0.0
 40
11.99999999997999
100
AcDbArc
 50
0.0
 51
90.0
  0
ARC
  5
233
330
1F
100
AcDbEntity
  8
0
  6
Continuous
 62
     7
100
AcDbCircle
 10
2214.00006138876
 20
-5687.920779408099
 30
0.0
 40
12.0
100
AcDbArc
 50
0.0
 51
90.0
  0
ARC
  5
234
330
1F
100
AcDbEntity
  8
0
  6
Continuous
 62
     7
100
AcDbCircle
 10
2238.00006138878
 20
-5687.920779408099
 30
0.0
 40
12.0
100
AcDbArc
 50
90.0
 51
180.0
  0
ARC
  5
235
330
1F
100
AcDbEntity
  8
0
  6
Continuous
 62
     7
100
AcDbCircle
 10
3086.71309475482
 20
-5864.958504103001
 30
0.0
 40
189.0388714266864
100
AcDbArc
 50
66.53045840447969
 51
90.19956906094804
  0
ARC
  5
236
330
1F
100
AcDbEntity
  8
0
  6
Continuous
 62
     7
100
AcDbCircle
 10
2037.28690524518
 20
-5864.958504103001
 30
0.0
 40
189.0388714266697
100
AcDbArc
 50
89.80043093905486
 51
113.4695415955203
  0
ARC
  5
237
330
1F
100
AcDbEntity
  8
0
  6
Continuous
 62
     7
100
AcDbCircle
 10
6086.71309475482
 20
-5864.958504103001
 30
0.0
 40
189.0388714266862
100
AcDbArc
 50
66.53045840447982
 51
90.19956906094804
  0
ARC
  5
238
330
1F
100
AcDbEntity
  8
0
  6
Continuous
 62
     7
100
AcDbCircle
 10
5037.28690524518
 20
-5864.958504103001
 30
0.0
 40
189.0388714266697
100
AcDbArc
 50
89.80043093905472
 51
113.4695415955146
  0
ARC
  5
239
330
1F
100
AcDbEntity
  8
0
  6
Continuous
 62
     7
100
AcDbCircle
 10
5574.0
 20
-5687.920779408099
 30
0.0
 40
12.00000000010004
100
AcDbArc
 50
90.0
 51
180.0
  0
ARC
  5
23A
330
1F
100
AcDbEntity
  8
0
  6
Continuous
 62
     7
100
AcDbCircle
 10
5550.0
 20
-5687.920779408099
 30
0.0
 40
11.99999999989996
100
AcDbArc
 50
0.0
 51
90.0
  0
ARC
  5
23B
330
1F
100
AcDbEntity
  8
1
  6
Continuous
 62
     4
100
AcDbCircle
 10
5100.26060055291
 20
-6047.392841603099
 30
0.0
 40
2.0
100
AcDbArc
 50
0.0
 51
90.0
  0
ARC
  5
23C
330
1F
100
AcDbEntity
  8
1
  6
Continuous
 62
     4
100
AcDbCircle
 10
5063.31539348271
 20
-6047.392841603099
 30
0.0
 40
2.0
100
AcDbArc
 50
90.0
 51
180.0
  0
ARC
  5
23D
330
1F
100
AcDbEntity
  8
1
  6
Continuous
 62
     4
100
AcDbCircle
 10
6017.80020422751
 20
-6047.392841603099
 30
0.0
 40
2.0
100
AcDbArc
 50
90.0
 51
180.0
  0
ARC
  5
23E
330
1F
100
AcDbEntity
  8
1
  6
Continuous
 62
     4
100
AcDbCircle
 10
6054.7454112977
 20
-6047.392841603099
 30
0.0
 40
2.0
100
AcDbArc
 50
0.0
 51
90.0
  0
ARC
  5
23F
330
1F
100
AcDbEntity
  8
1
  6
Continuous
 62
     4
100
AcDbCircle
 10
2226.351562588
 20
-6047.392841107499
 30
0.0
 40
2.0
100
AcDbArc
 50
0.0
 51
90.0
  0
ARC
  5
240
330
1F
100
AcDbEntity
  8
1
  6
Continuous
 62
     4
100
AcDbCircle
 10
2201.21719590059
 20
-6047.392841107499
 30
0.0
 40
2.0
100
AcDbArc
 50
90.0
 51
164.6561505694005
  0
ARC
  5
241
330
1F
100
AcDbEntity
  8
1
  6
Continuous
 62
     4
100
AcDbCircle
 10
2194.38524260472
 20
-6057.3052757145
 30
0.0
 40
2.0
100
AcDbArc
 50
-90.0
 51
-15.12915987226296
  0
ARC
  5
242
330
1F
100
AcDbEntity
  8
1
  6
Continuous
 62
     4
100
AcDbCircle
 10
3167.99639718052
 20
-6057.3052757145
 30
0.0
 40
2.0
100
AcDbArc
 50
-90.0
 51
-15.12915987218816
  0
ARC
  5
243
330
1F
100
AcDbEntity
  8
1
  6
Continuous
 62
     4
100
AcDbCircle
 10
3174.82835047638
 20
-6047.392841107499
 30
0.0
 40
2.0
100
AcDbArc
 50
90.0
 51
164.6561505692454
  0
ARC
  5
244
330
1F
100
AcDbEntity
  8
1
  6
Continuous
 62
     4
100
AcDbCircle
 10
3199.9627171638
 20
-6047.392841107499
 30
0.0
 40
2.0
100
AcDbArc
 50
0.0
 51
90.0
  0
ARC
  5
245
330
1F
100
AcDbEntity
  8
1
  6
Continuous
 62
     4
100
AcDbCircle
 10
2959.9627171638
 20
-12047.3928411075
 30
0.0
 40
2.0
100
AcDbArc
 50
0.0
 51
90.0
  0
ARC
  5
246
330
1F
100
AcDbEntity
  8
1
  6
Continuous
 62
     4
100
AcDbCircle
 10
2934.82835047638
 20
-12047.3928411075
 30
0.0
 40
2.0
100
AcDbArc
 50
90.0
 51
164.6561505692454
  0
ARC
  5
247
330
1F
100
AcDbEntity
  8
1
  6
Continuous
 62
     4
100
AcDbCircle
 10
2927.99639718052
 20
-12057.3052757145
 30
0.0
 40
2.0
100
AcDbArc
 50
-90.0
 51
-15.12915987218816
  0
ARC
  5
248
330
1F
100
AcDbEntity
  8
1
  6
Continuous
 62
     4
100
AcDbCircle
 10
2194.38524260472
 20
-12057.3052757145
 30
0.0
 40
2.0
100
AcDbArc
 50
-90.0
 51
-15.12915987226296
  0
ARC
  5
249
330
1F
100
AcDbEntity
  8
1
  6
Continuous
 62
     4
100
AcDbCircle
 10
2201.21719590059
 20
-12047.3928411075
 30
0.0
 40
2.0
100
AcDbArc
 50
90.0
 51
164.6561505694005
  0
ARC
  5
24A
330
1F
100
AcDbEntity
  8
1
  6
Continuous
 62
     4
100
AcDbCircle
 10
2226.351562588
 20
-12047.3928411075
 30
0.0
 40
2.0
100
AcDbArc
 50
0.0
 51
90.0
  0
ARC
  5
24B
330
1F
100
AcDbEntity
  8
1
  6
Continuous
 62
     4
100
AcDbCircle
 10
5814.7454116513
 20
-12047.3928416031
 30
0.0
 40
2.0
100
AcDbArc
 50
0.0
 51
90.0
  0
ARC
  5
24C
330
1F
100
AcDbEntity
  8
1
  6
Continuous
 62
     4
100
AcDbCircle
 10
5777.80020458111
 20
-12047.3928416031
 30
0.0
 40
2.0
100
AcDbArc
 50
90.0
 51
180.0
  0
ARC
  5
24D
330
1F
100
AcDbEntity
  8
1
  6
Continuous
 62
     4
100
AcDbCircle
 10
5063.31539348271
 20
-12047.3928416031
 30
0.0
 40
2.0
100
AcDbArc
 50
90.0
 51
180.0
  0
ARC
  5
24E
330
1F
100
AcDbEntity
  8
1
  6
Continuous
 62
     4
100
AcDbCircle
 10
5100.26060055291
 20
-12047.3928416031
 30
0.0
 40
2.0
100
AcDbArc
 50
0.0
 51
90.0
  0
ARC
  5
24F
330
1F
100
AcDbEntity
  8
0
  6
Continuous
 62
     7
100
AcDbCircle
 10
5430.0000003536
 20
-11687.9207794081
 30
0.0
 40
11.99999999989996
100
AcDbArc
 50
0.0
 51
90.0
  0
ARC
  5
250
330
1F
100
AcDbEntity
  8
0
  6
Continuous
 62
     7
100
AcDbCircle
 10
5454.0000003536
 20
-11687.9207794081
 30
0.0
 40
12.00000000010004
100
AcDbArc
 50
90.0
 51
180.0
  0
ARC
  5
251
330
1F
100
AcDbEntity
  8
0
  6
Continuous
 62
     7
100
AcDbCircle
 10
5037.28690524518
 20
-11864.958504103
 30
0.0
 40
189.0388714266688
100
AcDbArc
 50
89.80043093905472
 51
113.4695415955147
  0
ARC
  5
252
330
1F
100
AcDbEntity
  8
0
  6
Continuous
 62
     7
100
AcDbCircle
 10
5846.71309510842
 20
-11864.958504103
 30
0.0
 40
189.0388714266854
100
AcDbArc
 50
66.5304584044797
 51
90.19956906094804
  0
ARC
  5
253
330
1F
100
AcDbEntity
  8
0
  6
Continuous
 62
     7
100
AcDbCircle
 10
2037.28690524518
 20
-11864.958504103
 30
0.0
 40
189.0388714266688
100
AcDbArc
 50
89.80043093905486
 51
113.4695415955204
  0
ARC
  5
254
330
1F
100
AcDbEntity
  8
0
  6
Continuous
 62
     7
100
AcDbCircle
 10
2846.71309475482
 20
-11864.958504103
 30
0.0
 40
189.0388714266856
100
AcDbArc
 50
66.53045840447958
 51
90.19956906094804
  0
ARC
  5
255
330
1F
100
AcDbEntity
  8
0
  6
Continuous
 62
     7
100
AcDbCircle
 10
2238.00006138878
 20
-11687.9207794081
 30
0.0
 40
12.0
100
AcDbArc
 50
90.0
 51
180.0
  0
ARC
  5
256
330
1F
100
AcDbEntity
  8
0
  6
Continuous
 62
     7
100
AcDbCircle
 10
2214.00006138876
 20
-11687.9207794081
 30
0.0
 40
12.0
100
AcDbArc
 50
0.0
 51
90.0
  0
ARC
  5
257
330
1F
100
AcDbEntity
  8
0
  6
Continuous
 62
     7
100
AcDbCircle
 10
2645.99993878806
 20
-11687.9207794081
 30
0.0
 40
11.99999999997999
100
AcDbArc
 50
0.0
 51
90.0
  0
ARC
  5
258
330
1F
100
AcDbEntity
  8
0
  6
Continuous
 62
     7
100
AcDbCircle
 10
2669.99993878804
 20
-11687.9207794081
 30
0.0
 40
12.0
100
AcDbArc
 50
90.0
 51
180.0
  0
ARC
  5
259
330
1F
100
AcDbEntity
  8
0
  6
Continuous
 62
     7
100
AcDbCircle
 10
-153.286905245184
 20
-11864.958504103
 30
0.0
 40
189.0388714266871
100
AcDbArc
 50
66.53045840447851
 51
90.19956906094571
  0
ARC
  5
25A
330
1F
100
AcDbEntity
  8
0
  6
Continuous
 62
     7
100
AcDbCircle
 10
-962.713095108419
 20
-11864.958504103
 30
0.0
 40
189.0388714266688
100
AcDbArc
 50
89.80043093905431
 51
113.4695415955151
  0
ARC
  5
25B
330
1F
100
AcDbEntity
  8
0
  6
Continuous
 62
     7
100
AcDbCircle
 10
-546.0
 20
-11687.9207794081
 30
0.0
 40
12.00000000010004
100
AcDbArc
 50
89.99999999999511
 51
180.0
  0
ARC
  5
25C
330
1F
100
AcDbEntity
  8
0
  6
Continuous
 62
     7
100
AcDbCircle
 10
-570.0
 20
-11687.9207794081
 30
0.0
 40
11.99999999989996
100
AcDbArc
 50
0.0
 51
90.00000000000489
  0
ARC
  5
25D
330
1F
100
AcDbEntity
  8
1
  6
Continuous
 62
     4
100
AcDbCircle
 10
2870.24299149234
 20
-12029.6015219739
 30
0.0
 40
63.47717398792457
100
AcDbArc
 50
140.7564002528396
 51
-170.6708033802984
  0
ARC
  5
25E
330
1F
100
AcDbEntity
  8
1
  6
Continuous
 62
     4
100
AcDbCircle
 10
2921.9117047201
 20
-12058.3457716333
 30
0.0
 40
15.29380013749442
100
AcDbArc
 50
-90.12475877997629
 51
-14.72204971117687
  0
ARC
  5
25F
330
1F
100
AcDbEntity
  8
1
  6
Continuous
 62
     4
100
AcDbCircle
 10
2960.15931046893
 20
-12048.6654167693
 30
0.0
 40
1.816077592350535
100
AcDbArc
 50
-171.3094770493227
 51
6.7721564923757
  0
ARC
  5
260
330
1F
100
AcDbEntity
  8
1
  6
Continuous
 62
     4
100
AcDbCircle
 10
2226.54815589314
 20
-12048.6654167693
 30
0.0
 40
1.816077592370314
100
AcDbArc
 50
-171.3094770494181
 51
6.77215649230127
  0
ARC
  5
261
330
1F
100
AcDbEntity
  8
1
  6
Continuous
 62
     4
100
AcDbCircle
 10
2188.3005501443
 20
-12058.3457716333
 30
0.0
 40
15.29380013749444
100
AcDbArc
 50
-90.12475878001547
 51
-14.72204971117687
  0
ARC
  5
262
330
1F
100
AcDbEntity
  8
1
  6
Continuous
 62
     4
100
AcDbCircle
 10
2136.63183691655
 20
-12029.6015219739
 30
0.0
 40
63.47717398793232
100
AcDbArc
 50
140.7564002528454
 51
-170.6708033802998
  0
ARC
  5
263
330
1F
100
AcDbEntity
  8
1
  6
Continuous
 62
     7
100
AcDbCircle
 10
-100.982361722269
 20
-11725.412087968
 30
0.0
 40
52.00000000015718
100
AcDbArc
 50
-88.3819367680138
 51
-63.77045355949434
  0
ARC
  5
264
330
1F
100
AcDbEntity
  8
1
  6
Continuous
 62
     7
100
AcDbCircle
 10
-1015.01763827773
 20
-11725.412087968
 30
0.0
 40
52.0000000001631
100
AcDbArc
 50
-116.2295464405066
 51
-91.61806323198776
  0
ARC
  5
265
330
1F
100
AcDbEntity
  8
1
  6
Continuous
 62
     7
100
AcDbCircle
 10
1984.98236172227
 20
-11725.412087968
 30
0.0
 40
52.00000000016315
100
AcDbArc
 50
-116.2295464405067
 51
-91.61806323198789
  0
ARC
  5
266
330
1F
100
AcDbEntity
  8
1
  6
Continuous
 62
     7
100
AcDbCircle
 10
4984.98236172227
 20
-11725.412087968
 30
0.0
 40
52.00000000016315
100
AcDbArc
 50
-116.2295464405067
 51
-91.6180632319884
  0
ARC
  5
267
330
1F
100
AcDbEntity
  8
1
  6
Continuous
 62
     7
100
AcDbCircle
 10
2899.01763827773
 20
-11725.412087968
 30
0.0
 40
52.00000000015722
100
AcDbArc
 50
-88.38193676801211
 51
-63.77045355949328
  0
ARC
  5
268
330
1F
100
AcDbEntity
  8
1
  6
Continuous
 62
     7
100
AcDbCircle
 10
5899.01763827773
 20
-11725.412087968
 30
0.0
 40
52.00000000015724
100
AcDbArc
 50
-88.38193676801161
 51
-63.77045355949328
  0
CIRCLE
  5
269
330
1F
100
AcDbEntity
  8
1
  6
Continuous
 62
     4
100
AcDbCircle
 10
2870.24299149234
 20
-9029.6015219739
 30
0.0
 40
51.73863065773003
  0
CIRCLE
  5
26A
330
1F
100
AcDbEntity
  8
1
  6
Continuous
 62
     4
100
AcDbCircle
 10
2870.24299149234
 20
-9029.6015219739
 30
0.0
 40
61.43549897280991
  0
CIRCLE
  5
26B
330
1F
100
AcDbEntity
  8
1
  6
Continuous
 62
     4
100
AcDbCircle
 10
2136.63183691655
 20
-9029.6015219739
 30
0.0
 40
61.43549897279991
  0
CIRCLE
  5
26C
330
1F
100
AcDbEntity
  8
1
  6
Continuous
 62
     4
100
AcDbCircle
 10
2136.63183691655
 20
-9029.6015219739
 30
0.0
 40
51.73863065772002
  0
CIRCLE
  5
26D
330
1F
100
AcDbEntity
  8
1
  6
Continuous
 62
     4
100
AcDbCircle
 10
2136.63183691655
 20
-6029.6015219739
 30
0.0
 40
51.73863065772002
  0
CIRCLE
  5
26E
330
1F
100
AcDbEntity
  8
1
  6
Continuous
 62
     4
100
AcDbCircle
 10
2136.63183691655
 20
-6029.6015219739
 30
0.0
 40
61.43549897279991
  0
CIRCLE
  5
26F
330
1F
100
AcDbEntity
  8
1
  6
Continuous
 62
     4
100
AcDbCircle
 10
3110.24299149234
 20
-6029.6015219739
 30
0.0
 40
61.43549897280991
  0
CIRCLE
  5
270
330
1F
100
AcDbEntity
  8
1
  6
Continuous
 62
     4
100
AcDbCircle
 10
3110.24299149234
 20
-6029.6015219739
 30
0.0
 40
51.73863065773003
  0
CIRCLE
  5
271
330
1F
100
AcDbEntity
  8
1
  6
Continuous
 62
     4
100
AcDbCircle
 10
2870.24299149234
 20
-12029.6015219739
 30
0.0
 40
51.73863065773003
  0
CIRCLE
  5
272
330
1F
100
AcDbEntity
  8
1
  6
Continuous
 62
     4
100
AcDbCircle
 10
2870.24299149234
 20
-12029.6015219739
 30
0.0
 40
61.43549897280991
  0
CIRCLE
  5
273
330
1F
100
AcDbEntity
  8
1
  6
Continuous
 62
     4
100
AcDbCircle
 10
2136.63183691655
 20
-12029.6015219739
 30
0.0
 40
61.43549897279991
  0
CIRCLE
  5
274
330
1F
100
AcDbEntity
  8
1
  6
Continuous
 62
     4
100
AcDbCircle
 10
2136.63183691655
 20
-12029.6015219739
 30
0.0
 40
51.73863065772002
  0
XLINE
  5
275
330
1F
100
AcDbEntity
  8
1
  6
DOTTED
 62
     1
100
AcDbXline
 10
-2406.46695586238
 20
-12082.2309667031
 30
0.0
 11
1.0
 21
0.0
 31
0.0
  0
XLINE
  5
276
330
1F
100
AcDbEntity
  8
1
  6
DOTTED
 62
     1
100
AcDbXline
 10
19307.8313983154
 20
3803.056843248001
 30
0.0
 11
0.0
 21
1.0
 31
0.0
  0
XLINE
  5
277
330
1F
100
AcDbEntity
  8
1
  6
DOTTED
 62
     1
100
AcDbXline
 10
16307.8313983154
 20
3803.056843248001
 30
0.0
 11
0.0
 21
1.0
 31
0.0
  0
XLINE
  5
278
330
1F
100
AcDbEntity
  8
1
  6
DOTTED
 62
     1
100
AcDbXline
 10
13307.8313983154
 20
3803.056843248001
 30
0.0
 11
0.0
 21
1.0
 31
0.0
  0
XLINE
  5
279
330
1F
100
AcDbEntity
  8
1
  6
DOTTED
 62
     1
100
AcDbXline
 10
11028.37246996525
 20
3803.056843248001
 30
0.0
 11
0.0
 21
1.0
 31
0.0
  0
XLINE
  5
27A
330
1F
100
AcDbEntity
  8
1
  6
DOTTED
 62
     1
100
AcDbXline
 10
10344.82383496633
 20
3803.056843248001
 30
0.0
 11
1.0
 21
0.0
 31
0.0
  0
XLINE
  5
27B
330
1F
100
AcDbEntity
  8
1
  6
DOTTED
 62
     1
100
AcDbXline
 10
10344.82383496633
 20
2303.056843248001
 30
0.0
 11
1.0
 21
0.0
 31
0.0
  0
XLINE
  5
27C
330
1F
100
AcDbEntity
  8
1
  6
DOTTED
 62
     1
100
AcDbXline
 10
10344.82383496633
 20
803.0568432480013
 30
0.0
 11
1.0
 21
0.0
 31
0.0
  0
XLINE
  5
27D
330
1F
100
AcDbEntity
  8
1
  6
DOTTED
 62
     1
100
AcDbXline
 10
10344.82383496633
 20
-696.9431567519987
 30
0.0
 11
1.0
 21
0.0
 31
0.0
  0
XLINE
  5
27E
330
1F
100
AcDbEntity
  8
1
  6
DOTTED
 62
     1
100
AcDbXline
 10
12482.29032666555
 20
-696.9431567519987
 30
0.0
 11
1.0
 21
0.0
 31
0.0
  0
XLINE
  5
27F
330
1F
100
AcDbEntity
  8
1
  6
DOTTED
 62
     1
100
AcDbXline
 10
12482.29032666555
 20
803.0568432480013
 30
0.0
 11
1.0
 21
0.0
 31
0.0
  0
XLINE
  5
280
330
1F
100
AcDbEntity
  8
1
  6
DOTTED
 62
     1
100
AcDbXline
 10
12482.29032666555
 20
2303.056843248001
 30
0.0
 11
1.0
 21
0.0
 31
0.0
  0
XLINE
  5
281
330
1F
100
AcDbEntity
  8
1
  6
DOTTED
 62
     1
100
AcDbXline
 10
12482.29032666555
 20
3803.056843248001
 30
0.0
 11
1.0
 21
0.0
 31
0.0
  0
XLINE
  5
282
330
1F
100
AcDbEntity
  8
1
  6
DOTTED
 62
     1
100
AcDbXline
 10
3162.0
 20
-12090.3155003945
 30
0.0
 11
0.0
 21
1.0
 31
0.0
  0
XLINE
  5
283
330
1F
100
AcDbEntity
  8
1
  6
DOTTED
 62
     1
100
AcDbXline
 10
-2117.45892835015
 20
-12090.3155003945
 30
0.0
 11
0.0
 21
1.0
 31
0.0
  0
XLINE
  5
284
330
1F
100
AcDbEntity
  8
1
  6
DOTTED
 62
     1
100
AcDbXline
 10
6162.0
 20
-12090.3155003945
 30
0.0
 11
0.0
 21
1.0
 31
0.0
  0
XLINE
  5
285
330
1F
100
AcDbEntity
  8
1
  6
DOTTED
 62
     1
100
AcDbXline
 10
162.0
 20
-12090.3155003945
 30
0.0
 11
0.0
 21
1.0
 31
0.0
  0
XLINE
  5
286
330
1F
100
AcDbEntity
  8
1
  6
DOTTED
 62
     1
100
AcDbXline
 10
-4001.00756334907
 20
-3090.315500394499
 30
0.0
 11
1.0
 21
0.0
 31
0.0
  0
XLINE
  5
287
330
1F
100
AcDbEntity
  8
1
  6
DOTTED
 62
     1
100
AcDbXline
 10
-4001.00756334907
 20
-4590.315500394499
 30
0.0
 11
1.0
 21
0.0
 31
0.0
  0
XLINE
  5
288
330
1F
100
AcDbEntity
  8
1
  6
DOTTED
 62
     1
100
AcDbXline
 10
-4001.00756334907
 20
-6090.315500394499
 30
0.0
 11
1.0
 21
0.0
 31
0.0
  0
XLINE
  5
289
330
1F
100
AcDbEntity
  8
1
  6
DOTTED
 62
     1
100
AcDbXline
 10
-4001.00756334907
 20
-7590.315500394499
 30
0.0
 11
1.0
 21
0.0
 31
0.0
  0
XLINE
  5
28A
330
1F
100
AcDbEntity
  8
1
  6
DOTTED
 62
     1
100
AcDbXline
 10
-4001.00756334907
 20
-9090.315500394499
 30
0.0
 11
1.0
 21
0.0
 31
0.0
  0
XLINE
  5
28B
330
1F
100
AcDbEntity
  8
1
  6
DOTTED
 62
     1
100
AcDbXline
 10
-4001.00756334907
 20
-10590.3155003945
 30
0.0
 11
1.0
 21
0.0
 31
0.0
  0
XLINE
  5
28C
330
1F
100
AcDbEntity
  8
1
  6
DOTTED
 62
     1
100
AcDbXline
 10
-1863.54107164985
 20
-12090.3155003945
 30
0.0
 11
1.0
 21
0.0
 31
0.0
  0
XLINE
  5
28D
330
1F
100
AcDbEntity
  8
1
  6
DOTTED
 62
     1
100
AcDbXline
 10
-1863.54107164985
 20
-13590.3155003945
 30
0.0
 11
1.0
 21
0.0
 31
0.0
  0
XLINE
  5
28E
330
1F
100
AcDbEntity
  8
1
  6
DOTTED
 62
     1
100
AcDbXline
 10
-1863.54107164985
 20
-15090.3155003945
 30
0.0
 11
1.0
 21
0.0
 31
0.0
  0
XLINE
  5
28F
330
1F
100
AcDbEntity
  8
1
  6
DOTTED
 62
     1
100
AcDbXline
 10
-1863.54107164985
 20
-16590.3155003945
 30
0.0
 11
1.0
 21
0.0
 31
0.0
  0
XLINE
  5
290
330
1F
100
AcDbEntity
  8
1
  6
DOTTED
 62
     1
100
AcDbXline
 10
-4001.00756334907
 20
-16590.3155003945
 30
0.0
 11
1.0
 21
0.0
 31
0.0
  0
XLINE
  5
291
330
1F
100
AcDbEntity
  8
1
  6
DOTTED
 62
     1
100
AcDbXline
 10
-4001.00756334907
 20
-15090.3155003945
 30
0.0
 11
1.0
 21
0.0
 31
0.0
  0
XLINE
  5
292
330
1F
100
AcDbEntity
  8
1
  6
DOTTED
 62
     1
100
AcDbXline
 10
-4001.00756334907
 20
-13590.3155003945
 30
0.0
 11
1.0
 21
0.0
 31
0.0
  0
XLINE
  5
293
330
1F
100
AcDbEntity
  8
1
  6
DOTTED
 62
     1
100
AcDbXline
 10
-4001.00756334907
 20
-12090.3155003945
 30
0.0
 11
1.0
 21
0.0
 31
0.0
  0
XLINE
  5
294
330
1F
100
AcDbEntity
  8
1
  6
DOTTED
 62
     1
100
AcDbXline
 10
-3317.45892835015
 20
-12090.3155003945
 30
0.0
 11
0.0
 21
1.0
 31
0.0
  0
XLINE
  5
295
330
1F
100
AcDbEntity
  8
1
  6
DOTTED
 62
     1
100
AcDbXline
 10
-1038.0
 20
-12090.3155003945
 30
0.0
 11
0.0
 21
1.0
 31
0.0
  0
XLINE
  5
296
330
1F
100
AcDbEntity
  8
1
  6
DOTTED
 62
     1
100
AcDbXline
 10
1962.0
 20
-12090.3155003945
 30
0.0
 11
0.0
 21
1.0
 31
0.0
  0
XLINE
  5
297
330
1F
100
AcDbEntity
  8
1
  6
DOTTED
 62
     1
100
AcDbXline
 10
4962.0
 20
-12090.3155003945
 30
0.0
 11
0.0
 21
1.0
 31
0.0
  0
LWPOLYLINE
  5
298
330
1F
100
AcDbEntity
  8
VOLLE_LIJNEN
  6
Continuous
 62
     4
100
AcDbPolyline
 90
        3
 70
     0
 43
0.0
 10
2796.5288739014
 20
-9013.5905701517
 10
2796.5288739014
 20
-9013.6680630382
 10
2796.5288739014
 20
-9013.7541523623
  0
LWPOLYLINE
  5
299
330
1F
100
AcDbEntity
  8
VOLLE_LIJNEN
  6
Continuous
 62
     4
100
AcDbPolyline
 90
        3
 70
     0
 43
0.0
 10
2062.9177193256
 20
-9013.5905701517
 10
2062.9177193256
 20
-9013.6680630382
 10
2062.9177193256
 20
-9013.7541523623
  0
LWPOLYLINE
  5
29A
330
1F
100
AcDbEntity
  8
VOLLE_LIJNEN
  6
Continuous
 62
     4
100
AcDbPolyline
 90
        3
 70
     0
 43
0.0
 10
2062.9177193256
 20
-6013.5905701517
 10
2062.9177193256
 20
-6013.6680630382
 10
2062.9177193256
 20
-6013.7541523623
  0
LWPOLYLINE
  5
29B
330
1F
100
AcDbEntity
  8
VOLLE_LIJNEN
  6
Continuous
 62
     4
100
AcDbPolyline
 90
        3
 70
     0
 43
0.0
 10
3036.5288739014
 20
-6013.5905701517
 10
3036.5288739014
 20
-6013.6680630382
 10
3036.5288739014
 20
-6013.7541523623
  0
LWPOLYLINE
  5
29C
330
1F
100
AcDbEntity
  8
VOLLE_LIJNEN
  6
Continuous
 62
     4
100
AcDbPolyline
 90
        3
 70
     0
 43
0.0
 10
2796.5288739014
 20
-12013.5905701517
 10
2796.5288739014
 20
-12013.6680630382
 10
2796.5288739014
 20
-12013.7541523623
  0
LWPOLYLINE
  5
29D
330
1F
100
AcDbEntity
  8
VOLLE_LIJNEN
  6
Continuous
 62
     4
100
AcDbPolyline
 90
        3
 70
     0
 43
0.0
 10
2062.9177193256
 20
-12013.5905701517
 10
2062.9177193256
 20
-12013.6680630382
 10
2062.9177193256
 20
-12013.7541523623
  0
ENDSEC
  0
SECTION
  2
OBJECTS
  0
DICTIONARY
  5
C
330
0
100
AcDbDictionary
281
     1
  3
ACAD_GROUP
350
D
  3
ACAD_LAYOUT
350
1A
  3
ACAD_MLINESTYLE
350
17
  3
ACAD_PLOTSETTINGS
350
19
  3
ACAD_PLOTSTYLENAME
350
E
  3
ACAD_TABLESTYLE
350
2A
  3
AcDbVariableDictionary
350
2C
  0
DICTIONARY
  5
D
102
{ACAD_REACTORS
330
C
102
}
330
C
100
AcDbDictionary
281
     1
  0
DICTIONARY
  5
1A
102
{ACAD_REACTORS
330
C
102
}
330
C
100
AcDbDictionary
281
     1
  3
Layout1
350
1E
  3
Layout2
350
26
  3
Model
350
22
  0
DICTIONARY
  5
17
102
{ACAD_REACTORS
330
C
102
}
330
C
100
AcDbDictionary
281
     1
  3
Standard
350
18
  0
DICTIONARY
  5
19
102
{ACAD_REACTORS
330
C
102
}
330
C
100
AcDbDictionary
281
     1
  0
ACDBDICTIONARYWDFLT
  5
E
102
{ACAD_REACTORS
330
C
102
}
330
C
100
AcDbDictionary
281
     1
  3
Normal
350
F
100
AcDbDictionaryWithDefault
340
F
  0
DICTIONARY
  5
2A
102
{ACAD_REACTORS
330
C
102
}
330
C
100
AcDbDictionary
281
     1
  3
Standard
350
2B
  0
DICTIONARY
  5
2C
102
{ACAD_REACTORS
330
C
102
}
330
C
100
AcDbDictionary
281
     1
  3
CTABLESTYLE
350
2D
  0
LAYOUT
  5
1E
102
{ACAD_REACTORS
330
1A
102
}
330
1A
100
AcDbPlotSettings
  1

  2

  4

  6

 40
0.0
 41
0.0
 42
0.0
 43
0.0
 44
0.0
 45
0.0
 46
0.0
 47
0.0
 48
0.0
 49
0.0
140
0.0
141
0.0
142
1.0
143
1.0
 70
   688
 72
     0
 73
     0
 74
     5
  7

 75
    16
147
1.0
148
0.0
149
0.0
100
AcDbLayout
  1
Layout1
 70
     1
 71
     1
 10
0.0
 20
0.0
 11
12.0
 21
9.0
 12
0.0
 22
0.0
 32
0.0
 14
1.00000000000000E+20
 24
1.00000000000000E+20
 34
1.00000000000000E+20
 15
-1.00000000000000E+20
 25
-1.00000000000000E+20
 35
-1.00000000000000E+20
146
0.0
 13
0.0
 23
0.0
 33
0.0
 16
1.0
 26
0.0
 36
0.0
 17
0.0
 27
1.0
 37
0.0
 76
     0
330
1B
  0
LAYOUT
  5
26
102
{ACAD_REACTORS
330
1A
102
}
330
1A
100
AcDbPlotSettings
  1

  2

  4

  6

 40
0.0
 41
0.0
 42
0.0
 43
0.0
 44
0.0
 45
0.0
 46
0.0
 47
0.0
 48
0.0
 49
0.0
140
0.0
141
0.0
142
1.0
143
1.0
 70
   688
 72
     0
 73
     0
 74
     5
  7

 75
    16
147
1.0
148
0.0
149
0.0
100
AcDbLayout
  1
Layout2
 70
     1
 71
     2
 10
0.0
 20
0.0
 11
0.0
 21
0.0
 12
0.0
 22
0.0
 32
0.0
 14
0.0
 24
0.0
 34
0.0
 15
0.0
 25
0.0
 35
0.0
146
0.0
 13
0.0
 23
0.0
 33
0.0
 16
1.0
 26
0.0
 36
0.0
 17
0.0
 27
1.0
 37
0.0
 76
     0
330
23
  0
LAYOUT
  5
22
102
{ACAD_REACTORS
330
1A
102
}
330
1A
100
AcDbPlotSettings
  1

  2

  4

  6

 40
0.0
 41
0.0
 42
0.0
 43
0.0
 44
0.0
 45
0.0
 46
0.0
 47
0.0
 48
0.0
 49
0.0
140
0.0
141
0.0
142
1.0
143
1.0
 70
  1712
 72
     0
 73
     0
 74
     0
  7

 75
     0
147
1.0
148
0.0
149
0.0
100
AcDbLayout
  1
Model
 70
     1
 71
     0
 10
0.0
 20
0.0
 11
0.0
 21
0.0
 12
0.0
 22
0.0
 32
0.0
 14
-4001.00756334907
 24
-16590.3155003945
 34
0.0
 15
19307.8313983154
 25
3803.056843248001
 35
0.0
146
0.0
 13
0.0
 23
0.0
 33
0.0
 16
1.0
 26
0.0
 36
0.0
 17
0.0
 27
1.0
 37
0.0
 76
     0
330
1F
  0
MLINESTYLE
  5
18
102
{ACAD_REACTORS
330
17
102
}
330
17
100
AcDbMlineStyle
  2
Standard
 70
     0
  3

 62
   256
 51
90.0
 52
90.0
 71
     2
 49
0.5
 62
   256
  6
BYLAYER
 49
-0.5
 62
   256
  6
BYLAYER
  0
ACDBPLACEHOLDER
  5
F
102
{ACAD_REACTORS
330
E
102
}
330
E
  0
TABLESTYLE
  5
2B
102
{ACAD_REACTORS
330
2A
102
}
330
2A
100
AcDbTableStyle
  3
Standard
 70
     0
 71
     0
 40
0.06
 41
0.06
280
     0
281
     0
  7
Standard
140
0.18
170
     2
 62
     0
 63
     7
283
     0
274
    -2
284
     1
 64
     0
275
    -2
285
     1
 65
     0
276
    -2
286
     1
 66
     0
277
    -2
287
     1
 67
     0
278
    -2
288
     1
 68
     0
279
    -2
289
     1
 69
     0
  7
Standard
140
0.25
170
     5
 62
     0
 63
     7
283
     0
274
    -2
284
     1
 64
     0
275
    -2
285
     1
 65
     0
276
    -2
286
     1
 66
     0
277
    -2
287
     1
 67
     0
278
    -2
288
     1
 68
     0
279
    -2
289
     1
 69
     0
  7
Standard
140
0.18
170
     5
 62
     0
 63
     7
283
     0
274
    -2
284
     1
 64
     0
275
    -2
285
     1
 65
     0
276
    -2
286
     1
 66
     0
277
    -2
287
     1
 67
     0
278
    -2
288
     1
 68
     0
279
    -2
289
     1
 69
     0
  0
DICTIONARYVAR
  5
2D
102
{ACAD_REACTORS
330
2C
102
}
330
2C
100
DictionaryVariables
280
     0
  1
Standard
  0
ENDSEC
  0
EOF
